Chordie logo


Bendable Poseable   Hot Chip



Bendable Poseable by Hot Chip


the very simple intro:

e|--------------------------|
b|--------------------------|
g|--------------------------|
d|--------------------------|
a|--------------------------|
e|3-------3-------3-------3-|
   bendable poseable bendable poseable

the guitar part that comes 00:15


e|--------------------------------------|
b|-------------------15-13-15-11--------|
g|---10h12-12-12-----------------12-12--| (bend these last two notes on the second time)
d|--------------------------------------|
a|10------------------------------------|
e|--------------------------------------|

in the background for most of the song starting at 00:15 with the other guitar
maybe use palm mute or something and slide between the chords.

e|-----------------------|
b|-----------------------|
g|-----------------------|
d|3-5---3-5---3-5---8-5--|
a|3-5---3-5---3-5---8-5--|
e|1-3---1-3---1-3---6-3--|

and the synth/guitar part that comes in first at 01:24
e|------------------------------------------------|
b|------------------------------------------------|
g|------12-10----10-9-------------12-10----10-9---|
d|12h15-------12------12----12h15-------12--------|
a|------------------------------------------------|
e|------------------------------------------------|

e|-----------------------------------------------------|
b|-----------------------------------------------------|
g|------12-10----10-9h10-9-------------12-10----10-9---|
d|12h15-------12-----------12----12h15-------12--------|
a|-----------------------------------------------------|
e|-----------------------------------------------------|

there is more but some bits i'm not too sure on and its my first tab

lyrics:
Bendable, poseable
Bendable, poseable
Bendable, poseable
Bendable, poseable

There are holes in what we do
There is a hole between me and you
There is an error within our phrase
Then it takes and not erased

Watch what you say
I will not bending every way
My back bone is grey stone
My soft fold, my yellow clay

Watch what you say
As time ticks away
Tick, tick, tick, tick
Tick, time delay
Time delay
Time delay
Time delay
Bend away

I look, I look, I look, I look
I look, I look, I look, I look
I look, I look, I look, I look
I look, I look, I look, I look

There's the rubber
The square rubber ring
If you are new,
Then dance your way in
It's time to leave
Your weapon behind
Broken weapons are all we find

My hands, in my hands, in my hands, in my hands
My hands, in my hands, in my hands, in my hands
My hands, in my hands, in my hands, in my hands
They don't make magic mule everyday
They don't make magic mule everyday

I wanna new slide up and down
I wanna new slide up and down
You're gonna see my, see my thought
See my brilliant thought
'Til my jeans don't work no more
My jeans don't work no more

I wanna new slide up and down
I wanna new slide up and down
You're gonna see my, see my thought
See my brilliant thought
'Til my jeans don't work no more
My jeans don't work no more
They're all on the floor
All on the floor

Bendable, poseable
Bendable, poseable
Bendable, poseable


Important: The song above is NOT stored on the Chordie server. The original song is hosted at www.guitaretab.com. Chordie works as a search engine and provides on-the-fly formatting. Chordie does not index songs against artists/composers will. To remove this song please click here.

This song is displayed as text-only. Transposing and tuning is only available for chordpro-songs.

Login - add to songbook

Rating click stars to rate

Layout
Accuracy

SHARE PAGE  




You need to log in to post comments