Guitar Tabs, Chords and Lyrics


Life Wont Wait  Houston Calls

e|---------------------------------------------------------------------------|


B|-12----7----8----5---------------------------------------------------------|


G|-12----7----9----5---------------------------------------------------------|

D|---------------------------------------------------------------------------|
A|---------------------------------------------------------------------------|
E|---------------------------------------------------------------------------|
     [G]       [D]        [Em]        [C]                                                            
e|---------------------------------------------------------------------------------|
B|---------------------------------------------------------------------------------|
G|----------7---------------5------------------------------------------------------|
D|---5------7--------2------5------------------------------------------------------|
A|---5------5--------2------3------------------------------------------------------|
E|---3---------------0-------------------------------------------------------------|

Verse:

[G]Change; I[D] can’t deal with this c[Em]hange.
[C]All these people, they [G]say that it’s [D]cause for inspirat[Em]ion.    [C]
But I’ve got this p[G]ain so re[D]al I see what I’ve gai[Em]ned
But I f[C]eel like I’ve g[G]otten here by lo[D]sing so much mo[Em]re.      [C]

Chorus:

[G]Life won’t wait for m[D]e to get back on b[C]oth my feet again.
It just likes to s[G]ucker me into the n[D]ew
And then flip the s[C]witch on everything I do
‘Cause when op[Em]portunity k[D]nocks you have to let her i[C]n

Verse 2 + Chorus 2 are played the same as above

Change; I could just stay the same but what would that prove to you?
I’ve got this pain so real I see what I’ve gained
But I feel like I’m setting myself up to lose it all, it all, it all.

Life won’t wait for me to get back on both my feet again.
It just likes to sucker me into the new
And then flip the switch on everything I do
‘Cause when opportunity knocks you have to let her in

Bridge:
I’ve got [G]three striped squares I can’t get away from   [D]
Oh, I’ve got [Em]no four walls to call my own  [C]
Yea, I’ve got f[G]our controllers and four good friends
We k[D]eep it real until our lives all end
[Em]Whatever was I thinking?
The b[C]est times of my life are just beginning

Chorus x2


END.

Important: The song above is NOT stored on the Chordie server. The original song is hosted at www.guitaretab.com. Chordie works as a search engine and provides on-the-fly formatting. Chordie does not index songs against artists'/composers' will. To remove this song please click here.

Text color:
Chord color:
Chord grids: 
Font size:    
Page size: 

C D Em G
variations - click chord images

Login - add to songbook

Transpose chords

Tuning

Rating click stars to rate

Layout
Accuracy

SHARE PAGE  




You need to log in to post comments