Chordie logo

Slide Acoustic  Howie Day

e-0--0--3--2--2--2h3-3--3--3--3--3--3--3--3--| 


B-3--3--3--3--3--3---3--3--3--3--3--3--3--3--|


G-0--0--0--2--2--2---2--0--0--0--0--0--0--0--|


D-2--2--2--0--0--0---0--2--2--2--0--0--0--0--|


A-2--2--2---------------3--3--3--2--2--2--2--|


E-0--0--0------------------------3--3--3--3--| x2




[Em7]Could you whisper in my [D]ear

The things you wanna [Cadd9]feel


I'll give you anything to feel it coming.

[Em7]Do you wake up on your [D]own,

Wonder where you [Cadd9]are


Live with all your faults?


Fill:

e--2--2--2h3-3--3--|
B--3--3--3---3--3--|
G--2--2--2---2--0--|
D--0--0--0---0--2--|
A---------------3--|
E------------------|

I wanna wake up where u are


Fill:

e--2--2--2h3-3--3--|
B--3--3--3---3--3--|
G--2--2--2---2--0--|
D--0--0--0---0--2--|
A---------------3--|
E------------------|




I won't say anything at all,

[D]So why don't you slide?


play these chords: Cadd9, G, Cadd9, G, Cadd9, G, D


[Em7]Don't you love the life you [D]killed?

The priest is on the [Cadd9]phone


Your father hit the wall


Your Ma disowned you.

[Em7]I don't suppose I'll ever [D]know

What it means to be a [Cadd9]man


It's something I can't change


I'll live around it...

I wanna wake up where you are

Fill:

e--2--2--2h3-3--3--|
B--3--3--3---3--3--|
G--2--2--2---2--0--|
D--0--0--0---0--2--|
A---------------3--|
E------------------|

I won't say anything at all

[D]So why don't you slide?


Play these: Cadd9, G, Cadd9, G, Cadd9, G, D

[Cadd9]And I'll do any[G]thing you ever [Cadd9]dreamed to be com[G]plete

Little [Cadd9]pieces of the [G]nothing that [D]fall

[Em7]Oh May, put your arms a[D]round me

What you [Cadd9]feel is what you a[G]re and what you [Cadd9]are is beauti[G]ful

[Em7]Oh May, you wanna get [D]married, or r[Cadd9]un away?


Bridge: Cadd9, G, Cadd9, G, Cadd9, G, D


[Cadd9]And I'll do any[G]thing you ever [Cadd9]dreamed to be com[G]plete

Little [Cadd9]pieces of the [G]nothing that [D]fall

[Em7]Oh May, put your arms ar[D]ound me

What you [Cadd9]feel is what you [G]are and what you [Cadd9]are is beauti[G]ful

Em7 D Cadd9, G, Cadd9
Oh May, you wanna get married, or run away?

Fill:

e--2--2--2h3-3--3--|
B--3--3--3---3--3--|
G--2--2--2---2--0--|
D--0--0--0---0--2--|
A---------------3--|
E------------------|


I wanna wake up where you are...[D]

Fill:

e--2--2--2h3-3--3--|
B--3--3--3---3--3--|
G--2--2--2---2--0--|
D--0--0--0---0--2--|
A---------------3--|
E------------------|


.......


[Cadd9]And I'll do any[G]thing you ever [Cadd9]dream to be com[G]plete

Little [Cadd9]pieces of the [G]nothing that [D]fall...


Why don't you [Cadd9]slide between them [G]sheets of all those [Cadd9]beds you never [G]knew

Just [Cadd9]slide up to my [G]room, just [Em7]slide up to my [D]room


And I will run away, run away run away...


Outro:

e-0--0--3--2--2--2h3-3--3--3--3--3--3--3--3--|
B-3--3--3--3--3--3---3--3--3--3--3--3--3--3--|
G-0--0--0--2--2--2---2--0--0--0--0--0--0--0--|
D-2--2--2--0--0--0---0--2--2--2--0--0--0--0--|
A-2--2--2---------------3--3--3--2--2--2--2--|
E-0--0--0------------------------3--3--3--3--| x2


Finish on G

Important: The song above is NOT stored on the Chordie server. The original song is hosted at www.guitaretab.com. Chordie works as a search engine and provides on-the-fly formatting. Chordie does not index songs against artists/composers will. To remove this song please click here.

Cadd9 D Em7 G
variations - click chord images

Login - add to songbook

Transpose chords

Tuning

Rating click stars to rate

Layout
Accuracy

SHARE PAGE  

You need to log in to post comments