More You Understand

Howie Day

-------------------------------------------------------------------------------

-------------------------------------------------------------------------------
e|--0-----0-----0-----0---0---0-----1-----3-----3-----0-----0-----0-----0--|
B|--1-----0-----3-----0---0---0-----3-----3-----3-----1-----3-----0-----1--|
G|--2-----2-----2-----2---1---4-----2-----0-----0-----0-----0-----1-----2--|
D|--2-----2-----2-----3---2---5-----0-----0-----2-----2-----2-----0-----3--|
A|--0-----0-----0-----3---2---5-----------2-----2-----3-----3-----2--------|
E|------------------------0---------------3-----0-----------------0--------|
e|--0--0-0-0-0--0-0-0-0-0-0-0-0--0-0-0-0-0--0-0-0-0-0-0-0--0-0-0-0--|
B|--1--1-1-1-0--0-0-0-0-0-0-0-3--3-3-3-3-1--1-1-0-1-1-1-0--0-0-0-0--|
G|--2--2-2-2-2--2-2-2-2-2-2-2-2--2-2-2-2-2--2-2-2-2-2-2-2--2-2-2-2--|
D|--2--2-2-2-2--2-2-2-2-2-2-2-2--2-2-2-2-2--2-2-2-2-2-2-3--3-3-3-3--|
A|--0--0-0-0-0--0-0-0-0-0-0-0-0--0-0-0-0-0--0-0-0-0-0-0-3--3-3-3-3--|
E|------------------------------------------------------------------|
e|--0-0-0-0-0-0-0-0--0-0-0--0-0-0-0--|
B|--0-0-0-0-0-0-0-0--0-0-0--0-0-0-0--|
G|--2-2-2-2-2-2-2-1--1-1-2--2-2-2-2--|
D|--3-3-3-3-3-3-3-2--2-2-3--3-3-3-3--|
A|--3-3-3-3-3-3-3-2--2-2-3--3-3-3-3--|
E|----------------0--0-0-------------|
e|--0--0-0-0-0--0-0-0-0-0-0-0-0--0-0-0-0-0--0-0-0-0-0-0-0--0-0-0-0--|
B|--1--1-1-1-0--0-0-0-0-0-0-0-3--3-3-3-3-1--1-1-0-1-1-1-0--0-0-0-0--|
G|--2--2-2-2-2--2-2-2-2-2-2-2-2--2-2-2-2-2--2-2-2-2-2-2-2--2-2-2-2--|
D|--2--2-2-2-2--2-2-2-2-2-2-2-2--2-2-2-2-2--2-2-2-2-2-2-3--3-3-3-3--|
A|--0--0-0-0-0--0-0-0-0-0-0-0-0--0-0-0-0-0--0-0-0-0-0-0-3--3-3-3-3--|
E|------------------------------------------------------------------|
e|--0/0--0--0--0-0-0-0--0-0-0-0-0--|
B|--0/0--0--0--0-0-0-0--0-0-0-0-0--|
G|--2/4--2--1--1-1-2-2--2-2-2-2-2--|
D|--3/5--3--2--2-2-3-3--3-3-3-3-3--|
A|--3/5--3--2--2-2-3-3--3-3-3-3-3--|
E|----------0--0-0-----------------|

 DmGEm7AmAsus2DmG
e|--1----3----3----0--0----1----3--|
B|--3----3----3----1--0----3----3--|
G|--2----0----0----2--2----2----0--|
D|--0----0----2----2--2----0----0--|
A|-------2----2----0--0---------2--|
E|-------3----0-----------------3--|


Riff4: (chorus)

 CCadd9GE7Fmaj7
e|--0--0----3----0----0--|
B|--1--3----3----0----1--|
G|--0--0----0----1----2--|
D|--2--2----0----0----3--|
A|--3--3----2----2-------|
E|----------3----0-------|


Intro: Riff1, Riff2
Verse 1 ("A thousand years ago today..."): Riff1, Riff2
Prechorus 1 ("The CIA wouldn't bother you..."): Riff3
Chorus 1 ("The more you are..."): Riff4 x2
Interlude: Riff1
Verse 2 ("Sentiments are screamin out..."): Riff1, Riff2
Prechorus 2 ("The way it goes"): Riff3, Am, Asus, Fmaj7
Chorus 2: Riff4 x2
Interlude: Riff1, Riff2

**--Second Section--**

Chords Used:

Bm G6 F#* Em Aadd9 F#m D Dsus2 F#7 G
e|--2-----0-----0-----0-----0-----2-----2-----0-----2-----3--|
B|--3-----0-----0-----0-----0-----2-----3-----3-----2-----3--|
G|--4-----4-----3-----0-----6-----2-----2-----2-----3-----0--|
D|--4-----5-----4-----2-----7-----4-----0-----0-----2-----0--|
A|--2-----5-----4-----2-----7-----4-----------------4-----2--|
E|--------------------0-----------2-----------------2-----3--|


Riff5: (Verse)

Bm G6 F#*
e|--2-2-2-2--2-2-2-2--2-2-2-2--2-2-2-2--0--0-0-0-0--0-0-0-0-0-0-0--0-0-0-0-0--|
B|--3-3-3-3--3-3-3-3--3-3-3-3--3-3-3-3--0--0-0-0-0--0-0-0-0-0-0-0--0-0-0-0-0--|
G|--4-4-4-4--4-4-4-4--4-4-4-4--4-4-4-4--4--4-4-4-4--4-4-4-4-4-4-3--3-3-3-3-3--|
D|--4-4-4-4--4-4-4-4--4-4-4-4--4-4-4-4--5--5-5-5-5--5-5-5-5-5-5-4--4-4-4-4-4--|
A|--2-2-2-2--2-2-2-2--2-2-2-2--2-2-2-2--5--5-5-5-5--5-5-5-5-5-5-4--4-4-4-4-4--|
E|----------------------------------------------------------------------------|


Riff6: (Prechorus)
*strum pattern not shown*

 EmAadd9F#mBm
e|--0----0----2----2-2----0----0--|
B|--0----0----2----3-3----0----0--|
G|--0----6----2----4-4----0----6--|
D|--2----7----4----4-4----2----7--|
A|--2----7----4----2-0----2----7--|
E|--0---------2-----------0-------|


Riff7: (chorus into outro)

 DAadd9F#7G
e|--2--0----0----2----3----|
B|--3--3----0----2----3----|
G|--2--2----6----3----0----|
D|--0--0----7----2----0----|
A|----------7----4----2----|
E|---------------2----3----|


Verse 3 ("The CIA is after you..."): Riff5 x2
Prechorus ("Baffled by relationships..."): Riff6
Chorus: Riff7 x2
Outro: Riff7 xhowever many times you want

| / slide up
| \ slide down
| h hammer-on
| p pull-off
| ~ vibrato
| + harmonic
| x Mute note
===============================================================================


Aadd9 Am Asus2 Bm C Cadd9 D Dm E7 Em Em7 F#7 F#m Fmaj7 G
variations - click chord images
Transpose chords:
Tuning:
Cool service:
View: Size:
A  A  A
Rating:
Layout:
  • Currently 2.3/5 Stars.
  • 1
  • 2
  • 3
  • 4
  • 5
 
Accuracy:
  • Currently 3/5 Stars.
  • 1
  • 2
  • 3
  • 4
  • 5
 
click stars to rate
Chordie recommends:
Learn to play songs at Jamplay.com with video guitar lessons
Songbook:
Login to add this song to your songbook
Support the artist
Preview/buy this song
MSN Music
Why this non-profit ad?

 
login to add comments/video/corrections