Guitar Tabs, Chords and Lyrics


Smokestack Lightning   Howlin' Wolf


---------------------------------------



---------------------------------------





     [2]    ]    [3]    ]    [4]    ]    [1]    ]    [2]    ]    [3]    ]    [4]    ]    [1]    ]                     


 e ----------------------------------------------------------------|
 B --5-------8-----------------------------------------------------|
 G --------------------------------7-------------------------------|
 D --------------------------7/9-----9-------7-----5---------------|
 A --------------------------------------------------7-----5-------|
 E ----------------------------------------------------------0-----|





Second Riff:


     [2]    ]    [3]    ]    [4]    ]    [1]    ]    [2]    ]    [3]    ]    [4]    ]    [1]    ]                     


 e ----------------------------------------------------------------|
 B --5-------3-----------------------------------------------------|
 G --------------------------------7-------------------------------|
 D --------------------------7/9-----9-------7-----5---------------|
 A --------------------------------------------------7-----5-------|
 E ----------------------------------------------------------0-----|











Harmonica Riff (arranged for guitar):





    [2]    ]    [3]    ]    [4]    ]    [1]    ]    [2]    ]    [3]    ]    [4]    ]    [1]    ]                      


 e -----------------------------------------------------------------|
 B -5-------5~~~~~~~--------3-----3-5-----5-8-----8-5-----0-5-----0-|
 G -----------------------------------------------------------------|
 D -----------------------------------------------------------------|
 A -----------------------------------------------------------------|
 E -----------------------------------------------------------------|








    [2]    ]    [3]    ]    [4]    ]    [1]    ]    [2]    ]    [3]    ]    [4]    ]    [1]    ]                      


 e -----------------------------------------------------------------|
 B -5-------5~~~~~~~--------3-----3-5-----5-8-----8-5-----0-5-----0-|
 G -----------------------------------------------------------------|
 D -----------------------------------------------------------------|
 A -----------------------------------------------------------------|
 E -----------------------------------------------------------------|





    [2]    ]    [3]    ]    [4]    ]    [1]    ]    [2]    ]    [3]    ]    [4]    ]    [1]    ]                      


 e -----------------------------------------------------------------|
 B -5-------5~~~~~~~--------3-----3-5-----5-8-----8-5---12~~~~~~~---|
 G -----------------------------------------------------------------|
 D -----------------------------------------------------------------|
 A -----------------------------------------------------------------|
 E -----------------------------------------------------------------|



Important: The song above is NOT stored on the Chordie server. The original song is hosted at www.guitaretab.com. Chordie works as a search engine and provides on-the-fly formatting. Chordie does not index songs against artists'/composers' will. To remove this song please click here.

This song is displayed as text-only. Transposing and tuning is only available for chordpro-songs.

Login - add to songbook

Rating click stars to rate

Layout
Accuracy

SHARE PAGE  




You need to log in to post comments