Guitar Tabs, Chords and Lyrics


Avalanche   Hundred Reasons



=======
|Intro|  (x2)
======= 

E|-1p0----3--1p0-------|
B|-3------3--3------3--|
G|-2------5--2------5--|
D|-0------5--0------5--|
A|-0------3--0------3--|
E|------3-3-------3-3--|

=========
|Verse 1|
=========

E|--1p0-3--1p0-3--1p0-3-1p0------|
B|------1------1------1-3-----3--|
G|------0------0------0-2-----5--|
D|----------------------0-----5--|
A|-3---3--3---3--3---3--0-----3--|
E|--------------------------3-3--|

the avalanche, we strode towards

E|--1p0-3--1p0-3--1p0-----1p0----|
B|------1------1-------3------1--|
G|------0------0-------2------0--|
D|---------------0---0-0-3---3---|
A|-3---3--3---3------------------|
E|-------------------------------|

is nothing too us, at all - now...

E|--1p0-3--1p0-3--1p0-3-1p0------|
B|------1------1------1-3-----3--|
G|------0------0------0-2-----5--|
D|----------------------0-----5--|
A|-3---3--3---3--3---3--0-----3--|
E|--------------------------3-3--|

with all its force we know, it cannot

E|--1p0-3--1p0-3--1p0-----1p0----|
B|------1------1-------3------1--|
G|------0------0-------2------0--|
D|---------------0---0-0-3---3---|
A|-3---3--3---3------------------|
E|-------------------------------|

ever concieve to - stand in our way

========
|Chorus|  (x2)
========

E|---------------------------|
B|---------------------------|
G|-5--5---2-----------7--10--|
D|-5--5---2--5--2--3--7--10--|
A|-3--2---0--5--2--3--5--8---|
E|-----------3--0--1--5--8---|

condascending
chased it to where
we're the first ones
start our lives here(...)

=======
|Break|
======= 

E|-1p0----3--1p0-------|
B|-3------3--3------3--|
G|-2------5--2------5--|
D|-0------5--0------5--|
A|-0------3--0------3--|
E|------3-3-------3-3--|

..(here)...

=========
|Verse 2|
=========

E|--1p0-3--1p0-3--1p0-3-1p0------|
B|------1------1------1-3-----3--|
G|------0------0------0-2-----5--|
D|----------------------0-----5--|
A|-3---3--3---3--3---3--0-----3--|
E|--------------------------3-3--|

and changing patterns, dont take a toll

E|--1p0-3--1p0-3--1p0-----1p0----|
B|------1------1-------3------1--|
G|------0------0-------2------0--|
D|---------------0---0-0-3---3---|
A|-3---3--3---3------------------|
E|-------------------------------|

we wont forget, why we are here...

E|--1p0-3--1p0-3--1p0-3-1p0------|
B|------1------1------1-3-----3--|
G|------0------0------0-2-----5--|
D|----------------------0-----5--|
A|-3---3--3---3--3---3--0-----3--|
E|--------------------------3-3--|

with our hands held together, the clouds part

E|--1p0-3--1p0-3--1p0-----1p0----|
B|------1------1-------3------1--|
G|------0------0-------2------0--|
D|---------------0---0-0-3---3---|
A|-3---3--3---3------------------|
E|-------------------------------|

as if they knew - not-to - stand in our way

========
|Chorus|  (x4)
========

E|---------------------------|
B|---------------------------|
G|-5--5---2-----------7--10--|
D|-5--5---2--5--2--3--7--10--|
A|-3--2---0--5--2--3--5--8---|
E|-----------3--0--1--5--8---|

condascending
chased it to well
we're the first ones
start our lives here(...)

=======
|Outtro|
======= 

E|-1p0----3--1p0-------1p0----3--1p0----------|
B|-3------3--3------3--3------3--3------3-----|
G|-2------5--2------5--2------5--2------5--5--|
D|-0------5--0------5--0------5--0------5--5--|
A|-0------3--0------3--0------3--0------3--3--|
E|------3-3-------3-3-------3-3-------3-3--x--|



Important: The song above is NOT stored on the Chordie server. The original song is hosted at www.guitaretab.com. Chordie works as a search engine and provides on-the-fly formatting. Chordie does not index songs against artists'/composers' will. To remove this song please click here.

This song is displayed as text-only. Transposing and tuning is only available for chordpro-songs.

Login - add to songbook

Rating click stars to rate

Layout
Accuracy

SHARE PAGE  




You need to log in to post comments