eToCache5 = ""; ?> Twist by I Am Kloot - guitar chords, guitar tabs and lyrics - chordie

Twist

I Am Kloot

----------------------------


 x02210
Am     
 332010
C      
 033211
F      
 022100
E      
 x03210
Fmaj7  

 Intro
 ]

|-----------0-|------0---0---0-|---------|
|-------3-----|----------------|---------|
|-----1-------|----3-------2-1-|---------|
|-2-----------|-/4-----3-----2-|---------|
|-------------|----------------|-2-0-----|
|-------------|----------------|-----3-2-|


 Verse I
 ]

 AmCFE
  Twisted on destiny, fate and three wishes
 AmCFE
  We fuck and we fight, someone else does the dishes,
 AmCFE
  And meantime my memory reminisces and twists,

|-------------------|
|-------------------|
|-------------------|
|-2-0-----0h2-0-----|
|-----3-2-------3-2-|
|-------------------|


 Verse II
 ]

 AmCFE
  There was a time when we were filled with laughter
 AmCFE
  Haplessly hoping happy ever after
 AmCFE
 Did we string up a heart, let it swing from the rafters and bleed

|-------------------|
|-------------------|
|-------------------|
|-2-0-----0h2-0-----|
|-----3-2-------3-2-|
|-------------------|


 Cborus I
 ]

 AmCFmaj7
 There's blood on your legs, I love you
 AmCFmaj7
 There's blood on your legs, I love you
 AmCFmaj7
 There's blood on your legs, I love you

|-------------------|
|-------------------|
|-------------------|
|-2-0-----0h2-0-----|
|-----3-2-------3-2-|
|-------------------|


 Verse III
 ]
 AmCFE
  Evoke the rich tapestry of love and devotion
 AmCFE
  Emote the sweet saccharine of all that devotion
 AmCFE
  Forget all about that and fall in this ocean with me, with me

|-------------------|
|-------------------|
|-------------------|
|-2-0-----0h2-0-----|
|-----3-2-------3-2-|
|-------------------|


 Cborus I
 ]
 AmCFmaj7
  Twist, snap, I love you
 AmCFmaj7
  Twist, snap, I love you
 AmCFmaj7
  Twist, snap, I love you

 Interlude
 ] * Same as Chorus

Da da da da da...

 Cborus III
 ]

 AmCFmaj7
 There's blood on your legs, I love you
 AmCFmaj7
 There's blood on your legs, I love you
 AmCFmaj7
 There's blood on your legs, I love you

 Ending
 ]

I love you
I love you
I love you
I love you
I love you

|-------------------|
|-------------------|
|-------------------|
|-2-0-----0h2-0-----| Until it fades
|-----3-2-------3-2-|
|-------------------|
|-----|-----|-----------------------------|---------5-|
|-----|-3/5-|-5-4-3-1-3-1-3h4p3-4-5-4-3-0-|-------5---|
|-----|-----|-----------------------------|-4---5-----|
|-2/7-|-----|-----------------------------|---7-------|
|-----|-----|-----------------------------|-----------|
|-----|-----|-----------------------------|-----------|				



Am C E F Fmaj7
variations - click chord images
Transpose chords:
Tuning:
Cool service:
View: Size:
A  A  A
Rating:
Layout:
  • Currently 2.9/5 Stars.
  • 1
  • 2
  • 3
  • 4
  • 5
 
Accuracy:
  • Currently 3/5 Stars.
  • 1
  • 2
  • 3
  • 4
  • 5
 
click stars to rate
Chordie recommends:
Check out JamPlay.com for online video guitar lessons
Songbook:
Login to add this song to your songbook
Support the artist
Preview/buy this song
MSN Music
Why this non-profit ad?

 
login to add comments/video/corrections