86 Tvs

I Am Kloot

----------------------------


 466544
Ab      
 133111
FM      
 8-10-10-888
Cm      
 x46644
Dbsus2  
 x35533
Csus2   

 Intro
 ]

|-------|-------1---1-------3---0-0-------------|
|-------|-------1---1-------1---1-1-------------|
|-------|-------------------------------6--5----|
|-------|-3-----------3-----------------6--5--3-|
|-------|---4-----------3---------------4--3--3-|
|-------|-------------------------------------1-|


 Verse I
 ]

I feel so straight, look so slow
|-1---1-|-------1---1-------3---0-0-------------|
|-1---1-|-------1---1-------1---1-1-------------|
|-------|-------------------------------6--5----|
|-------|-3-----------3-----------------6--5--3-|
|-------|---4-----------3---------------4--3--3-|
|-------|-------------------------------------1-|


Just you wait till I get you home *
|-1---1-|-------1---1-------3---0-0-----------8-|
|-1---1-|-------1---1-------1---1-1-----------8-|
|-------|-------------------------------6--5--8-|
|-------|-3-----------3-----------------6--5-10-|
|-------|---4-----------3---------------4--3-10-|
|-------|-------------------------------------8-|


 Pre-Cborus & Cborus I
 ]

Ab**
I saw you laughing on a tv show
 Ab
What did i think you'd know 
 Dbsus2
The colours bleeds to black
 Ab
Say you can't let go
 Dbsus2Csus2Fm
Then you're never coming back          

 Verse II
 ]

You watch yourself when you talk to me
|-1---1-|-------1---1-------3---0-0-------------|
|-1---1-|-------1---1-------1---1-1-------------|
|-------|-------------------------------6--5----|
|-------|-3-----------3-----------------6--5--3-|
|-------|---4-----------3---------------4--3--3-|
|-------|-------------------------------------1-|


Cos I've got you on 86 tv's *
|-1---1-|-------1---1-------3---0-0-----------8-|
|-1---1-|-------1---1-------1---1-1-----------8-|
|-------|-------------------------------6--5--8-|
|-------|-3-----------3-----------------6--5-10-|
|-------|---4-----------3---------------4--3-10-|
|-------|-------------------------------------8-|


 Pre-Cborus & Cborus II
 ]
Ab**
And all those words that they made up for me
 Ab
Aren't what i thought they'd be 
 Dbsus2Ab
The radios are red, made a mess of me
 Dbsus2Csus2Fm
And so i'm walking home instead       

 Verse III
 ]

Sweet like apples, I pulled you
|-1---1-|-------1---1-------3---0-0-------------|
|-1---1-|-------1---1-------1---1-1-------------|
|-------|-------------------------------6--5----|
|-------|-3-----------3-----------------6--5--3-|
|-------|---4-----------3---------------4--3--3-|
|-------|-------------------------------------1-|


Reminds me of the things we said we'd do *
|-1---1-|-------1---1-------3---0-0-----------8-|
|-1---1-|-------1---1-------1---1-1-----------8-|
|-------|-------------------------------6--5--8-|
|-------|-3-----------3-----------------6--5-10-|
|-------|---4-----------3---------------4--3-10-|
|-------|-------------------------------------8-|


 Pre-Cborus & Cborus III
 ]

Ab**
But all those words that they made up for you
 Ab
Would never pull you through
 Dbsus2
The greed and all the gain
 AbDbsus2Csus2Cm
Made a mess of you, now we'll never be the same          

 Pre-Cborus & Cborus IV
 ]
Ab**
I'd love to say I like to thank them all
 Ab
But I have not the gall
 Dbsus2
The wisdom or the guile
 Ab
We walked into that ball
 Dbsus2
And then we disappeared in style
 AbDbsus2AbDbsus2Csus2Fm
On 86 tv's, On 86 tv's, On 86 tv's, On 86 tv's              

 Ending
 ]

You watch yourself when you talk to me
|-1---1-|-------1---1-------3---0-0-----------1-|
|-1---1-|-------1---1-------1---1-1-----------1-|
|-------|-------------------------------6--5--1-|
|-------|-3-----------3-----------------6--5--3-|
|-------|---4-----------3---------------4--3--3-|
|-------|-------------------------------------1-|


 Extra
 ]***

|-7-----7-----7-----7-----|
|---8-----8-----8-----8---|
|-----9-----9-----9-----9-|
|-------------------------|
|-------------------------|
|-------------------------|


* Arpeggiate and let it ring
** We can't hear it well but he's strumming softly
*** This is played continously at 0:45 with a 2nd guitar


Ab Cm Csus2 Dbsus2 Fm
variations - click chord images
Transpose chords:
Tuning:
Cool service:
View: Size:
A  A  A
Rating:
Layout:
  • Currently 3.4/5 Stars.
  • 1
  • 2
  • 3
  • 4
  • 5
 
Accuracy:
  • Currently 3/5 Stars.
  • 1
  • 2
  • 3
  • 4
  • 5
 
click stars to rate
Chordie recommends:
Learn how to play guitar at JamPlay.com
Songbook:
Login to add this song to your songbook
Support the artist
Preview/buy this song
MSN Music
Why this non-profit ad?

 
login to add comments/video/corrections