Chordie logo

Vom Selben Stern  Ich Und Ich

e|---------1-------------1-----------1-----------1------------1-----------1-------|


B|------------1-------------1-----------1-----------1------------2------------2---|


G|-------1------1-----1-------1---1-------1----1------1----3-------3----3---------|


D|----3------------3------------3-----------3------------3-----------3------------|


A|--------------------------------------------------------------------------------|


E|--------------------------------------------------------------------------------|



--------3----------3--------|


-----------4----------4-----|


3-----5-------5---5------5--|


--5------------5----------5-|


----------------------------|


----------------------------|









[Fm]      [Fm]       [Bbm]         [Fm]               

Verse 1:
[Fm]   Steh auf, zieh dich an

[Fm]   jetzt sind andre Geister dran

[Bbm]   Ich nehm den Schmerz von dir,

[Fm]   ich nehm den Schmerz von dir


(play at Background Riff 1)
[Fm]   Fenster auf, Musik ganz laut

[Fm]   das letzte Eis ist aufgetaut

[Bbm]  ich nehm den Schmerz von dir,

ich nehm den [Cm]Schmerz von dir

Prechorus
=========

[F]  Wir alle sind aus Sternenstaub,

[Ab]  in unsren Augen warmer Glanz,

Wir sind noch i[Eb]mmer nicht zerbrochen,

wir sind ganz[Cm].

Chorus
======

Du bist vom s[Fm]elben Stern

Ich kann deinen [Ab]Herzschlag hörn

du bist vom selb[Cm]en Stern wie i[Eb]ch, wie ich, wie ich

weil dich die gleiche [Fm]Stimme lenkt

und du am gleichen [Ab]Faden hängst

Weil du Dasselbe de[Cm]nkst wie ich[Eb], wie ich, wie ich


Verse 2
=======
[Fm]    Tanz durch dein Zimmer, heb ma ab

[Fm]    Tanz durch die Straßen, tanz durch die Stadt

[Bbm]    Ich nehm den Schmerz von dir

[Fm]    Ich nehm den Schmerz von Dir

(play at background Riff 1)
[Fm]    Lass uns zusammen unsre Bahnen ziehn

[Fm]    Wir fliegen heute noch über Berlin

[Bbm]    ich nehm den Schmerz von dir,

Ich nehm den S[Cm]chmerz von dir


Prechorus
=========

[F]  Wir alle sind aus Sternenstaub,

[Ab]  in unsren Augen warmer Glanz,

Wir sind noch [Eb]immer nicht zerbrochen,

wir sind ga[Cm]nz.

Chorus
======

Du bist vom s[Fm]elben Stern

Ich kann deinen [Ab]Herzschlag hörn

du bist vom selb[Cm]en Stern wie i[Eb]ch, wie ich, wie ich

weil dich die gleiche [Fm]Stimme lenkt

und du am gleichen [Ab]Faden hängst

Weil du Dasselbe de[Cm]nkst wie ich[Eb], wie ich, wie ich


Ich nehm den S[Fm]chmerz von dir...    [Fm]         [Bbm]        [Fm]

Ich nehm den S[Fm]chmerz von dir...    [Fm]         [Bbm]        [Fm]

play Chorus


END

Original by markusploch modified by Hans Kayser

Important: The song above is NOT stored on the Chordie server. The original song is hosted at www.guitaretab.com. Chordie works as a search engine and provides on-the-fly formatting. Chordie does not index songs against artists/composers will. To remove this song please click here.

Ab Bbm Cm Eb F Fm
variations - click chord images

Login - add to songbook

Transpose chords

Tuning

Rating click stars to rate

Layout
Accuracy

SHARE PAGE  



You need to log in to post comments