Guitar Tabs, Chords and Lyrics


Little Discourage   Idlewild



-------------------------------------------------------------------------------
	     Little Discourage - Idlewild- (100 Broken Windows)
-------------------------------------------------------------------------------
Tabbed by: Philip


Tuning: EADGBe

| /  slide up
| \  slide down
| h  hammer-on
| p  pull-off
| ~  vibrato
| +  harmonic
| x  Mute note

When playing the opening riff be a bit messy, let the b hold and bar the first
two or three strings on the seventh fret after the slide down to give the riff
a bit more substance.

Fun, inaccurate version:

e|------------------------------------------|
B|------------------------------------------|
G|------------------------------------------|
D|----9---9/11(\)9-9-------9---9/11(\)9-----|
A|--9----------------7---9----------------9-|
E|7-----7--------------7-----7--------------|

Accurate version, harder to make sound good on stage:

e|-------------------------------------|
B|-------------------------------------|
G|-------------------------------------|
D|----9-9//11-9-9--------9-9//11-9-----|
A|--9-------------7----9-------------9-|
E|7------------------7-----------------|

Guitar 1 has loads of tremelo effect, set the depth quite deep:

e|---------|
B|---------|
G|6--------|
D|6--------|
A|4--------|
E|---------|

Guitar 2 plays a riff which could be power chords, (not sure), either way,
play the base note prominently and stick an extra fifth or octave on top if
you have only one guitar in the band.

e|----------------------------|
B|----------------------------|
G|6-------9-7---6-----9---11--|(Play if there are two guitars)
D|----------------------------|
A|4-------7-5---4-----7---9---|(This is the correct timing)
E|----------------------------|

Bridge, second time round at the end of the riff
bar fifth fret and play power chord, all strings:

e|-----------------------------------------|
B|-----------------------------------------|
G|-----------4-4-4-4-4-7-7-7-7-7-7-7-7-7-7-|
D|-4-4-4-4-4-4-4-4-4-4-7-7-7-7-7-7-7-7-7-7-|
A|-4-4-4-4-4-2-2-2-2-2-5-5-5-5-5-5-5-5-5-5-|
E|-2-2-2-2-2-------------------------------|

Chorus:

e|-----------------------------------------|
B|-----------------------------------------|
G|-7-7-7-7-7-7-7-7-7-7-7-7-7-7-7-4-4-4-4-4-|
D|-7-7-7-7-7-7-7-7-7-7-7-7-7-7-7-4-4-4-4-4-|
A|-5-5-5-5-5-5-5-5-5-5-5-5-5-5-5-2-2-2-2-2-|
E|-----------------------------------------|

e|-----------------------------------------|
B|-----------------------------------------|
G|-----------------------------------------|
D|-4-4-4-4-4-4-4-4-4-4-4-4-4-4-4-4-4-4-4-4-|
A|-4-4-4-4-4-4-4-4-4-4-4-4-4-4-4-4-4-4-4-4-|
E|-2-2-2-2-2-2-2-2-2-2-2-2-2-2-2-2-2-2-2-2-|

e|9---9---7---7---5---5---7---7----------------------------------------------|
B|--7---7---7---7---7---7---7---7--------------------------------------------|
G|---------------------------------------------------------------------------|
D|---------------------------------------------------------------------------|
A|---------------------------------------------------------------------------|
E|---------------------------------------------------------------------------|

e|9---9---7---7-----------4---4----------------------------------------------|
B|--7---7---7---7-7---7-----7---7--------------------------------------------|
G|------------------4---4----------------------------------------------------|
D|---------------------------------------------------------------------------|
A|---------------------------------------------------------------------------|
E|---------------------------------------------------------------------------|





Important: The song above is NOT stored on the Chordie server. The original song is hosted at www.guitaretab.com. Chordie works as a search engine and provides on-the-fly formatting. Chordie does not index songs against artists'/composers' will. To remove this song please click here.

This song is displayed as text-only. Transposing and tuning is only available for chordpro-songs.

Login - add to songbook

Rating click stars to rate

Layout
Accuracy

SHARE PAGE  




You need to log in to post comments