Guitar Tabs, Chords and Lyrics


Theres Glory In Your Story   Idlewild



iDLEWiLD
There's Glory In Your Story

Guitar tuned down half a step (Eb, Ab, Db, Gb, Bb, Eb)

Main Riff
Eb--3--3-3--3-3-0-2--2-2---2-2-0-0--0-0--0-0-0-2--2-2---2-2-0--|
Bb--0--0-0--0-0-0-3--3-3---3-3-0-1--1-1--1-1-0-3--3-3---3-3-0--|
Gb--0--0-0--0-0-0-2--2-2---2-2-0-0--0-0--0-0-0-2--2-2---2-2-0--|
Db--0--0-0--0-0-0-0--0-0---0-0-0-2--2-2--2-2-0-0--0-0---0-0-0--|
Ab--2--2-2--2-2-0----------------3--3-3--3-3-0-----------------|
Eb--3--3-3--3-3-0----------------------------------------------| Play x 2

Bridge Riff (Guitar 1)
Eb--0--0-0--0-0-0--0-0-0--0-0-0-0--0-0--0-0-0--0-0-0--0-0-0--:
Bb--0--0-0--0-0-0--0-0-0--0-0-0-1--1-1--1-1-1--1-1-1--1-1-1--:
Gb--0--0-0--0-0-0--0-0-0--0-0-0-0--0-0--0-0-0--0-0-0--0-0-0--:
Db--2--2-2--2-2-2--2-2-2--2-2-0-2--2-2--2-2-2--2-2-2--2-2-2--:
Ab--2--2-2--2-2-2--2-2-2--2-2-0-3--3-3--3-3-3--3-3-3--3-3-3--:
Eb--0--0-0--0-0-0--0-0-0--0-0-0------------------------------:

:--0--0-0--0-0-0--0-0-0--0-0-0-0--0-0--0-0-0--2--2-2--2-2-2--|
:--0--0-0--0-0-0--0-0-0--0-0-0-1--1-1--1-1-1--3--3-3--3-3-3--|
:--0--0-0--0-0-0--0-0-0--0-0-0-0--0-0--0-0-0--2--2-2--2-2-2--|
:--2--2-2--2-2-2--2-2-2--2-2-0-2--2-2--2-2-2--0--0-0--0-0-0--|
:--2--2-2--2-2-2--2-2-2--2-2-0-3--3-3--3-3-3-----------------|
:--0--0-0--0-0-0--0-0-0--0-0-0-------------------------------|

Bridge Riff (Guitar 2)
Eb-------------------------------------------------------------------------|
Bb-------------------------------------------------------------------------|
Gb--7-9-9-9-7-9-9-9-9--------7-9-9-9-7-9-9-9-7-9-9-9-9--11-11-11-11-12-12--|
Db---------------------9-9-9-----------------------------------------------|
Ab--5-7-7-7-5-7-7-7-7--------5-7-7-7-5-7-7-7-5-7-7-7-7--9--9--9--9--10-10--|
Eb---------------------7-7-7-----------------------------------------------| Play x 2

Then play Main Riff x 2

Post-Chorus Riff (Guitar 1)
Eb-----------------------------------|
Bb-----------------------------------|
Gb------------------5-5-5-5-7-7-7-7--|
Db--5-5-5-5-7-7-7-7-5-5-5-5-7-7-7-7--|
Ab--5-5-5-5-7-7-7-7-3-3-3-3-5-5-5-5--|
Eb--3-3-3-3-5-5-5-5------------------| Play x 4

Post-Chorus Riff (Guitar 2)
Eb-------------------------------------------------------------|
Bb--12-----12-----12-----12-----12-----12-----12---------------|
Gb--14bu16-14bu16-14bu16-14bu16-14bu16-14bu16-14bu16rb14-12-14-| Play x 4

Guitar 2 carries on into verse like so (slowly getting softer):
Eb--------------------------|
Bb--------------------------|
Gb--12~--11~--9~--11~--12~--| Play x 1
Underneath this, play:
Main Riff Variant
Eb---------------------2-0-------------------------2-0------|
Bb------3--1-0-1-----3-----3---------3-1-0-------3-----3----|
Gb-----------------2---------2-----0-------0---2---------2--|
Db---------------0---------------2-----------0--------------|
Ab----2------------------------3----------------------------|
Eb--3-------------------------------------------------------| Play x 2

Then play Main Riff x 2


Important: The song above is NOT stored on the Chordie server. The original song is hosted at www.guitaretab.com. Chordie works as a search engine and provides on-the-fly formatting. Chordie does not index songs against artists'/composers' will. To remove this song please click here.

This song is displayed as text-only. Transposing and tuning is only available for chordpro-songs.

Login - add to songbook

Rating click stars to rate

Layout
Accuracy

SHARE PAGE  




You need to log in to post comments