Chordie logo


Search And Destroy   Iggy Pop



Song: Search and Destroy
Band: Iggy and the Stooges
Album: Raw Power
Tabbed By: O-52-A-50-R

Thanks Monticello for correcting the 'bend' in the solo.

Intro:

Rhythm

|---------------------------|
|---------------------------|
|6-6-6-6-x11-11-11-11-------| (repeat as necessary)
|6-6-6-6-x11-11-11-11-11-11-|
|4-4-4-4-x-9--9--9--9-11-11-|
|----------------------9--9-|

Lead/Solo

|------------------------------------------------|
|------------------------------------------------|
|---9-11-11b-11-9----9-11-9-11b-11p9-11-9--------|
|11---------------11----------------------11-9\--|
|------------------------------------------------|
|------------------------------------------------|

|------------------------------12----12-14b16r14p12----12-14-12--|
|14-14-14-14-12----12----12-14----14----------------14-----------|
|---------------13----13-----------------------------------------|
|----------------------------------------------------------------|
|----------------------------------------------------------------|
|----------------------------------------------------------------|


Verse

Rhythm

|---------------------------------------------------|
|---------------------------------------------------|
|6-6-6-6-6-9-------------6-6-6-6-x11-11-11-11-------|
|6-6-6-6-6-9-7-7-7—7-7-9-6-6-6-6-x11-11-11-11-11-11-|
|4-4-4-4-4-7-7-7-7-7-7-9-4-4-4-4-x-9--9--9--9-11-11-|
|------------5-5-5-5-5-7-----------------------9--9-|

^ Repeat as necessary ^




Verse to Chorus Fill-In

|--------------------------------|
|--------------------------------|
|6-----6--4-----4--2-2-2-----2/4-|
|4-6-6-4--2-4-4-2--2-2-2-2-2-2/4-| (Repeat as necessary)
|4-4-4-4--2-2-2-2--0-0-0-2-2-0h2-|
|--4-4------2-2----------0-0-----|

Chorus

|------------------------------|
|------------------------------|
|------------------------------|
|3/4-4-4—4-4-4-4-4-4-4-------1-|
|3/4-4-4—4-4-4-4-4-4-4---1-4---|
|1/2-2-2-2-2-2-2-2-2-2-4-------|

|------------------------------|
|------------------------------|
|------------------------------|
|7-7-7-7-7-7-7-7-7-7-7---------|
|7-7-7-7-7-7-7-7-7-7-7-----4-7-|
|5-5-5-5-5-5-5-5-5-5-5-5-7-----|

|------------------------------|
|------------------------------|
|------------------------------|
|2-2-2-2-2-2-2-2-2-2-2---------|
|2-2-2-2-2-2-2-2-2-2-2-----2-4-|
|0-0-0-0-0-0-0-0-0-0-0-2-4-----|

|-------------------------|
|-------------------------|
|-------------------------|
|6-6-6-6-6-6-6-6—6-6-6----|
|6-6-6-6-6-6-6-6-6-6-6----|
|4-4-4-4-4-4-4-4-4-4-4----|

Bridge
|--------------------------------|
|--------------------------------|
|6-6-6---4-------2-2-2-2-4-4-4-4-| (4x)
|4-4-4-6-2-----2-2-2-2-2-4-4-4-4-|
|4-4-4—4-2—2-4---0-0-0-0-2-2-2-2-|
|------4-------------------------|

Solo


|------------------------------------------------|
|------------------------------------------------|
|---9-11-11b-11-9----9-11-9-11b-11p9-11-9--------|
|11---------------11----------------------11-9\--|
|------------------------------------------------|
|------------------------------------------------|

|------------------------------12----12-14b16r14p12----12-14-12--|
|14-14-14-14-12----12----12-14----14----------------14-----------|
|---------------13----13-----------------------------------------|
|----------------------------------------------------------------|
|----------------------------------------------------------------|
|----------------------------------------------------------------|

Pull Off Solo

|12p11-------|
|------14p12-|
|------------|
|------------| (Repeat as necessary)
|------------|
|------------|

|-------------------|
|10p9---------------|
|-----11p9-9p8------|
|--------------11p9-|  The other four pull-offs that are             
|-------------------|  heard in GH2 are not audible.
|-------------------| 

Outro

[A lot of noise]

Ends on

|-------------|
|10-9-10-9-8b-|
|-------------|
|-------------|
|-------------|
|-------------|


Important: The song above is NOT stored on the Chordie server. The original song is hosted at www.guitaretab.com. Chordie works as a search engine and provides on-the-fly formatting. Chordie does not index songs against artists/composers will. To remove this song please click here.

This song is displayed as text-only. Transposing and tuning is only available for chordpro-songs.

Login - add to songbook

Rating click stars to rate

Layout
Accuracy

SHARE PAGE  




You need to log in to post comments