eToCache5 = ""; ?> Cold Metal by Iggy Pop - guitar chords, guitar tabs and lyrics - chordie

Cold Metal

Iggy Pop

 G
E------------------------------------------|
B--4-5-5-4---4-5-5-4---4-5-5-4---4-5-5-4---|
G--4-4-4-4---4-4-4-4---4-4-4-4---4-5-5-4---|
D--4-4-4-4---4-4-4-4---4-4-4-4---4-5-5-4---|
A------------------------------------------|
E------------------------------------------|


A G time: 43" Em
E--------3---------3---------3---------3--|------|
B--------3---------3---------3---------3--|------|
G--2-2-2-0---2-2-2-0---2-2-2-0---2-2-2-0--|------|
D--2-2-2-----2-2-2-----2-2-2-----2-2-2----|--2---|
A--0-0-0-----0-0-0-----0-0-2-----0-0-0----|--2---|
E-----------------------------------------|--0---|

repeat

time: 54";
"I'm a product of America,From the morgue to the prisons"

 B
E-------------------------------|
B-------------------------------|
G--4-4--4--4---4-4---4--4-------|
D--4-4--4--4---4-4---4--4-------|
A--2-2--2--2---2-2---2--2-------|
E-------------------------------|


"Cold metal, when I start my band... "And my attitude
 AGGD
E-------3---------3---------3---------3--|-------2-|
B-------3---------3---------3---------3--|-------3-|
G--2-2--0---2-2-2-0---2-2-2-0---2-2-2-0--|--0----2-|
D--2-2------2-2-2-----2-2-2-----2-2-2----|--0----0-|
A--0-0------0-0-0-----0-0-0-----0-0-0----|--2------|
E----------------------------------------|--3------|

repeat let ring

time:1'16

A G time: 1"40 Em
E--------3---------3---------3---------3--|------|
B--------3---------3---------3---------3--|------|
G--2-2-2-0---2-2-2-0---2-2-2-0---2-2-2-0--|------|
D--2-2-2-----2-2-2-----2-2-2-----2-2-2----|--2---|
A--0-0-0-----0-0-0-----0-0-2-----0-0-0----|--2---|
E-----------------------------------------|--0---|

repeat

 AGGD
E-------3---------3---------3---------3--|-------2-|
B-------3---------3---------3---------3--|-------3-|
G--2-2--0---2-2-2-0---2-2-2-0---2-2-2-0--|--0----2-|
D--2-2------2-2-2-----2-2-2-----2-2-2----|--0----0-|
A--0-0------0-0-0-----0-0-0-----0-0-0----|--2------|
E----------------------------------------|--3------|

repeat let ring

time : 1'50
"This is the song of my heritage..
E------------------------------------------|
B----5-5-------5-5-------5-5-------5-5-----|
G--4-4-4-4---4-4-4-4---4-4-4-4---4-5-5-4---|
D--4-4-4-4---4-4-4-4---4-4-4-4---4-5-5-4---|
A--2-----2---2-----2---2-----2---2-----2---|
E------------------------------------------|


"Cold metal,that's what it be,

 AGGD
E-------3---------3---------3---------3--|-------2-|
B-------3---------3---------3---------3--|-------3-|
G--2-2--0---2-2-2-0---2-2-2-0---2-2-2-0--|--0----2-|
D--2-2------2-2-2-----2-2-2-----2-2-2----|--0----0-|
A--0-0------0-0-0-----0-0-0-----0-0-0----|--2------|
E----------------------------------------|--3------|


"how we sin, how we sin, how we sin, how we sin

 GA
E----------------------------|
B----------------------------|
G-------7--------7-------7---|
D--5-5--7---5-5--7--5-5--7---|
A--5-5--5---5-5--5--5-5--5---|
E--3-3------3-3-----3-3------|


solo part;
E----------------------------|
B--8h10-10---8h10-10--------|
G--9----9----9----9---------|
D----------------------------|X4
A----------------------------|
E----------------------------|


"Cold metal, in the afternoon
 AGGD
E-------3---------3---------3---------3--|-------2-|
B-------3---------3---------3---------3--|-------3-|
G--2-2--0---2-2-2-0---2-2-2-0---2-2-2-0--|--0----2-|
D--2-2------2-2-2-----2-2-2-----2-2-2----|--0----0-|
A--0-0------0-0-0-----0-0-0-----0-0-0----|--2------|
E----------------------------------------|--3------|


"Save a tree, save a tree, save a tree, save a tree
 GA
E----------------------------|
B----------------------------|
G-------7--------7-------7---|
D--5-5--7---5-5--2--5-5--7---|
A--5-5--5---5-5--5--5-5--5---|
E--3-3------3-3-----3-3------|


Iggy Pop

Cold Metal lyrics

Uh
I played tag in the auto graveyard
I looked up at the radio tower
Rag tent by the railroad tracks
Concrete poured over steel bridge
Pondered my fate
While they built the interstate

I'm a product of America
From the morgue to the prisons
Cold metal, when I start my band
Cold metal, in my garbage can
Cold metal, gets in my blood
And my attitude

Yeah, a huh

Threw my hide in an automobile
Heard a song called "Drive the wheel"
Truckers, trailers, tractors caught me workin'

This is the song of my heritage
From the bad to the Buddha
Cold metal, that's what it be
Cold metal, from sea to sea
Cold metal, it's how we win
And also how we sin
How we sin, how we sin, how we sin, how we sin

Cold metal, in the afternoon
Sounds lovely like a Hendrix tune
Cold metal, it's the father of beat
The mother of the street
Cold metal, it rolls on by
Cold metal, gonna raise it high
Cold metal, it'll even fly
Rust buckets in the sky
Cold metal, got to be
Skeleton of the free
Cold metal, it's gotta be
Better save a tree
Save a tree, save a tree, save a tree, save a tree
Yeah

until the end

A B D G
variations - click chord images
Transpose chords:
Tuning:
Cool service:
View: Size:
A  A  A
Rating:
Layout:
  • Currently 2.6/5 Stars.
  • 1
  • 2
  • 3
  • 4
  • 5
 
Accuracy:
  • Currently 2.8/5 Stars.
  • 1
  • 2
  • 3
  • 4
  • 5
 
click stars to rate
Chordie recommends:
Get acoustic guitar lessons and electric guitar lessons at JamPlay.com
Songbook:
Login to add this song to your songbook
Support the artist
Preview/buy this song
MSN Music
Why this non-profit ad?

 
login to add comments/video/corrections