Regressa A Mi

Il Divo

Intro.Bm-Em-A-F---------------------------------------------------|Bm-C-A
|-----------------------------------------------------------------|
|-----------------7-8--------7-----------------------------5s7----|
|--3-4-6-7--7-7-9------7-7-9----6--6~--4~--4~---3~---3-4-5--------|
|-----------------------------------------------------------------|
|-----------------------------------------------------------------|
|-----------------------------------------------------------------|

Verse 1:(Arpegiate All Chords)
 BmEmAF#
 No me abandones así, hablando sólo de ti.
 BmEmAF#
Ven y devuelveme al fin la sonrisa que se fue.
 BmEmAF#
 Una vez más tocar tu piel, el hondo suspirar
 BmEmAF#
Recuperemos lo que se ha perdido.

Chrous:
 F#DmGmC
 Regresa a mí, quéreme otra vez.
 ADmGmC
 borran el dolor que al irte me dio cuando te separaste de mí.

 ADmGmC
 Dime que sí, Yo no quiero llorar,
 AF#
 regresa a mí.

Verse 2:
 BmEmAF#
 Extraño el amor que se fue, extraña la dicha también.
 BmEmAF#
 Quiero que vengas a mí y me vuelvas se querer.

 BmEmAF#
No puedo más si tú no estás, tienes que llegar.

 BmEmA
 Mi vida se apaga sin ti a mi lado.

Chrous:
 F#DmGmC
 Regresa a mí, quéreme otra vez.
 ADmGmC
 borran el dolor que al irte me dio cuando te separaste de mí.

 ADmGmC
 Dime que sí, Yo no quiero llorar,
 AF#
 regresa a mí.

Solo:
|------------6-6s7-6-4-7--------------------------------------------4--6--6s7--|
|----------4--------------5--------7---9--9s11--9-11-9s7--9s11s4---------------|
|----3-4-6-------------------6-8s9---------------------------------------------|
|--6---------------------------------------------------------------------------|
|------------------------------------------------------------------------------|
|------------------------------------------------------------------------------|
|----6-7-9-9s11-11s4-----7h9p7p6---6-----6-7-9-7-6-7s9-7--|
|--9-------------------9---------9---7--------------------|
|---------------------------------------------------------|
|---------------------------------------------------------|
|---------------------------------------------------------|
|---------------------------------------------------------|

Bridge:
 BmEmAF#
 No me abandonas así, hablando sólo de ti.
 BmEmA
 Devuelveme la pasión de tus brazos.

Chrous:
 F#DmGmC
 Regresa a mí, quéreme otra vez.
 ADmGmC
 borran el dolor que al irte me dio cuando te separaste de mí.
 ADmGmC
 Dime que sí, Yo no quiero llorar,
 AF#
 regresa a mí.

By: João Aido - PORTUGAL I hope u like it... it take me lots of time doing it!!! :pp
P.S.:O PORTO TÁ A 6!!! Este coment é pa ti Paulo R. Sousa!!!


A Bm C Dm Em F# Gm
variations - click chord images
Transpose chords:
Tuning:
Cool service:
View: Size:
A  A  A
Rating:
Layout:
  • Currently 2.9/5 Stars.
  • 1
  • 2
  • 3
  • 4
  • 5
 
Accuracy:
  • Currently 3.2/5 Stars.
  • 1
  • 2
  • 3
  • 4
  • 5
 
click stars to rate
Chordie recommends:
Learn to play this song & others via video guitar lessons at JamPlay.com
Songbook:
Login to add this song to your songbook
Support the artist
Preview/buy this song
MSN Music
Why this non-profit ad?

 
login to add comments/video/corrections