Guitar Tabs, Chords and Lyrics


The Beeching Report   Iliketrains



-------------------------------------------------------------------------------
		      THE BEECHiNG REPORT - iLiKETRAiNS
-------------------------------------------------------------------------------
Tabbed by: Yves Aguayo
Email: presnea.deary@gmail.com

An easy song, but such an amazing one. It has an slight acoustic guitar in certain 
of the song.

Verses:

e|-------------------------------------------------------|
B|--------3----3----3----3-------3----3----3----3--------|
G|--------3----3----3----3-------3----3----3----3--------|
D|--------0----0----0----0-------0----0----0----0--------|
A|-------------------------------------------------------|
E|---3----------------------3----------------------------|

e|-------------------------------------------------------|
B|--------3----3----3----3-------3----3----3----3--------|
G|--------2----2----2----2-------2----2----2----2--------|
D|--------0----0----0----0-------0----0----0----0--------|
A|-------------------------------------------------------|
E|---2----------------------2----------------------------|

e|-------------------------------------------------------|
B|--------3----3----3----3-------3----3----3----3--------|
G|--------1----1----1----1-------1----1----1----1--------|
D|--------2----2----2----2-------2----2----2----2--------|
A|-------------------------------------------------------|
E|---0----------------------0----------------------------|

e|--------------------------------------------------------|
B|--------3----3----3----3-------3----3-----3----3--------|
G|--------2----2----2----2-------2----2-----2----2--------|
D|--------0----0----0----0-------0----0-----0----0--------|
A|--------------------------------------------------------|
E|---1----------------------1------------2----------------|


Chorus:

Gm , C# , Fm , C (C7)

Gm: 3x033x
C#: x4666x
Fm: 13311x
C : x3201x
C7: x3231x

Is this the price we pay for progress?
Taking one step forward for every six we take back
Does your dirty oil-stained money make you happy
Do you just wan't to be remembered?
Book your place in history (you will be)

Reform, reform
Oh you are taking apart what we made
With our hands and our hearts

Our hands and our hearts are not just tools to ply your trade
Theyre ours to live our lives with
and you're taking them away
So feel free to wrap your hands around my neck
I feel free to do the same (feel free, surround your house with gates)
Feel free to do the same

Reform, reform
Oh you are taking apart what we made
With our hands and our hearts
Mr Beeching I put it to you you're driving a stake through the land of our hands and our hearts
further to this there is nothing you can say



Important: The song above is NOT stored on the Chordie server. The original song is hosted at www.guitaretab.com. Chordie works as a search engine and provides on-the-fly formatting. Chordie does not index songs against artists/composers will. To remove this song please click here.

This song is displayed as text-only. Transposing and tuning is only available for chordpro-songs.

Login - add to songbook

Rating click stars to rate

Layout
Accuracy

SHARE PAGE  




You need to log in to post comments