Guitar Tabs, Chords and Lyrics


Daydream Djs   Faith Hill



to the greatest song of all time
ill faith
daydream dj's


intro/verse:
e)---------------------------------------------------------------|
b)---------------------------------------------------------------|
g)-55555555------------------------------------------------------|
d)-5555555555555555/7777777733333333-----------------------------|
a)-3333333355555555/7777777733333333-----------------------------|
E)---------33333333/5555555511111111-----------------------------|

chorus:
e)---------------------------------------------------------------|
b)---------------------------------------------------------------|
g)-55--------------55--------------------------------------------|
d)-55-55/77-33-----55-55/77-33-----------------------------------|
a)-33-55/77-33-----33-55/77-33-----------------------------------|
E)----33/55-11--------33/55-11-----------------------------------|

solo:
e)---------------------------------------------------------------|
b)---------------------------------------------------------------|
g)---------------------------------------------------------------|
d)---5---5-----------------------------------------(repeat)------|
a)-3---3-----5---5-/--7---7----3---3-----------------------------|


Important: The song above is NOT stored on the Chordie server. The original song is hosted at www.guitaretab.com. Chordie works as a search engine and provides on-the-fly formatting. Chordie does not index songs against artists'/composers' will. To remove this song please click here.

This song is displayed as text-only. Transposing and tuning is only available for chordpro-songs.

Login - add to songbook

Rating click stars to rate

Layout
Accuracy

SHARE PAGE  




You need to log in to post comments