Chordie logo

Everything Beautiful   Ill Nino



Band - Ill Nino
Song - Everything Beautiful
Tabber - Killswitch_mike (Only On UltimateGuitar.com)
Album - One Nation Underground (Roadrunner Records 2005) Track #9

Intro: Clean or acoustic

D|-------------------|
A|-------------------|
F|-7-7-5-5-8-8-5-7-7-|
C|-7-7-5-5-8-8-5-7-7-| x 4
G|-5-5-3-3-6-6-3-5-5-|
C|-------------------|

Fill: (Distorted now)

D|---------|
A|---------|
F|-7-5-5-8-|
C|-7-5-5-8-|
G|-5-3-3-6-|
C|---------|

verse

D|--------------------------------------|
A|--------------------------------------|
F|--------------------------------------|
C|--------------------------------------| x 2
G|----3-4-3-3----3-4-3-3-----3-4-3-3----|
C|-000--------000---------000--------000|
   ...        ...         ...        ...
Chorus:

D|-------------------------------|
A|-------------------------------|
F|-------------------------------|
C|-5555~--88888~--5555~--33333~--| x 2
G|-5555~--88888~--5555~--33333~--|
C|-5555~--88888~--5555~--33333~--|

verse

D|--------------------------------------|
A|--------------------------------------|
F|--------------------------------------|
C|--------------------------------------| x 2
G|----3-4-3-3----3-4-3-3-----3-4-3-3----|
C|-000--------000---------000--------000|
   ...        ...         ...        ...

Chorus:

D|-------------------------------|
A|-------------------------------|
F|-------------------------------|
C|-5555~--88888~--5555~--33333~--| x 2
G|-5555~--88888~--5555~--33333~--|
C|-5555~--88888~--5555~--33333~--|

Fill:

D|-------------------------|
A|-------------------------|
F|-77777-55555-55555-88888-|
C|-77777-55555-55555-88888-| x 4
G|-55555-33333-33333-66666-|
C|-------------------------|

Chorus:

D|-------------------------------|
A|-------------------------------|
F|-------------------------------|

C|-5555~--88888~--5555~--33333~--| x 2
G|-5555~--88888~--5555~--33333~--|
C|-5555~--88888~--5555~--33333~--|


Any Comments, Questions Or Corrections Email Me please



Important: The song above is NOT stored on the Chordie server. The original song is hosted at www.guitaretab.com. Chordie works as a search engine and provides on-the-fly formatting. Chordie does not index songs against artists/composers will. To remove this song please click here.

This song is displayed as text-only. Transposing and tuning is only available for chordpro-songs.

Login - add to songbook

Rating click stars to rate

Layout
Accuracy

SHARE PAGE  

You need to log in to post comments