Guitar Tabs, Chords and Lyrics


I Love You   Ilse De Lange



Ilse de Lange - I love you
Tuning: 1 step down, drop c
tabbed : Stijn Strotmann

Dit is wat ik van de uitzending van de wereld draait door heb kunnen tabben:

Couplet:
|-------------------------------------------|
|-------------------------------------------|
|-----------------------------4-5-5----2----|
|-----3h5-5-5-----3h5-5-3----------------5-3|
|-3-3---------3-3---------------------------|
|-------------------------5-5------3-3------|

|----|
|----|
|-9--|
|-10-|
|-8--|
|-7--|


Refrein:								
|-------------------------------------------------------------------------------------------|
|------------------------------------------------------------------------------------3--3-5-|
|---------------------------------------------0----------------------------------------5----|
|-----3h5-5-5-----3h5-5-3-----3h5-5-5----3h5---------3h-5-5-5-----3h5--------3h5-5-5--------|
|-3-3---------3-3----------1-1--------1-1---------------------------------------------------|


Important: The song above is NOT stored on the Chordie server. The original song is hosted at www.guitaretab.com. Chordie works as a search engine and provides on-the-fly formatting. Chordie does not index songs against artists/composers will. To remove this song please click here.

This song is displayed as text-only. Transposing and tuning is only available for chordpro-songs.

Login - add to songbook

Rating click stars to rate

Layout
Accuracy

SHARE PAGE  




You need to log in to post comments