Akap

Imago

 AA/G#F#mG#mDE
e|-------x-------x--------x-------x-----x------x-----|
b|-------x-------x--------x-------x-----x------x-----|
g|-------x-------x--------x-------x-----7------9-----|
d|-------7-------7--------4-------6-----7------9-----|
a|-------7-------7--------4-------6-----5------7-----|
e|-------5-------4--------2-------5-----x------x-----|


intro:

rythm guitar (power chords):
 AA/G#F#mG#mA
e|----------------------------------------------------------------|
B|----------------------------------------------------------------|
G|----------------------------------------------------------------|
D|--7---------7---------4-----------6--5--------------------------|
A|--7-strum---7-strum---4-strum-----6--7-strum---repeat the cycle-|
E|--5---------4---------2-----------4--7--------------------------|


Verse 1
 A
 Nagtatanong...
 A/G#F#mD
 Bakit mahirap sumabay sa agos ng iyong ulo?
 A
 Nagtataka...
 A/G#F#mDE
 Simple lang naman sana ang buhay, ba't ika'y lumingon?

Chorus
 AF#mD
 Sabihin sakin lahat ng lihim mo
 A
Iingatan ko
 AF#mD
 Ibaling sakin ang problema mo
 A
Kakayanin ko...


Bridge
 EA
 Sasamahan ka sa tamis
 EA
 Sasamahan ka sa dilim
 EA
 Sasamahan ka hanggang langit
 EA
 Sasamahan ka sa tamis
 EA
 Sasamahan ka sa pait
 EA
 Sasamahan ka sa dilim
 EA
 Sasamahan ka hanggang langit
 EA
 Sasamahan ka...
 EA
 Oohhh...oohhh...
 EA
 Oooohhh...oohhh...
 EA
 Oohhohh....

outro:
 AAF#mF#m
e|-----------------------------------|
B|-----------------------------------|
G|-----------------------------------|.....accompanied by drums.....
D|--7777-xxx-7777-xxx--4444-xxx-4444-|
A|--7777-xxx-7777-xxx--4444-xxx-4444-|
E|--5555-xxx-5555-xxx--2222-xxx-2222-|


B\C#m D D\E D C#m A
e|--------------------------------------|
B|--------------------------------------| x -mute note
G|--4\6----7777xxxx7777\9--7----6-------|
D|--4\6----7777xxxx7777\9--7----6----7--|
A|--2\4----5555xxxx5555\7--5----4----7--|
E|-----------------------------------5--|


figure out the strumming pattern for the outro by listening to the cd...

sama nyo po ako sa klite live....jejejeje....
comments or suggestions? post em at
or txt me at 09163981421....


A A/G# D E F#m G#m
variations - click chord images
Transpose chords:
Tuning:
Cool service:
View: Size:
A  A  A
Rating:
Layout:
  • Currently 2.9/5 Stars.
  • 1
  • 2
  • 3
  • 4
  • 5
 
Accuracy:
  • Currently 3.1/5 Stars.
  • 1
  • 2
  • 3
  • 4
  • 5
 
click stars to rate
Chordie recommends:
Learn to play guitar with video-based, online guitar lessons at JamPlay.com
Songbook:
Login to add this song to your songbook
Support the artist
Preview/buy this song
MSN Music
Why this non-profit ad?

 
login to add comments/video/corrections