eToCache5 = ""; ?> Witchs Hat by Incredible String Band - guitar chords, guitar tabs and lyrics - chordie
-------------------------------------------------------------------------------

-------------------------------------------------------------------------------

 DmAmDm
e|--------1-0-------------1--------------------------------------------------|
B|--3-2-3---1-1-0-1---0-2-3-3-2----------------------------------------------|
G|----------2-------2-----2--------------------------------------------------|
D|--0---0-0-2-------------0-0------------------------------------------------|
A|----------0-------------0--------------------------------------------------|
E|---------------------------------------------------------------------------|


 DmAmDmA
 ceeeeer-tainly the children have seen them
 DmEmAmDmAmEmAmEmAm
 in qui-et places where the moss grows gre-en

 ADmADm
 coloured shells jangle together
 GDmAmDmA
the wind is cold the year is old the trees whisper together
 BbADm
and bend in the wind they lean

 BbFAG
 next week a monkey is coming to stay     

 CF
If I was a witches hat
 CF
 sitting on her head like a paraffin stove
 CF
 I'd fly away and be a bat
 CF
 across the air I would rove

 CD
 stepping like a tightrope walker
 GD
 putting one foot after another
F Am/C(032210) F Dm
wearing black cherries for rings

just strum a d minor and "la la la" for the rest of the song




A Am Bb C D Dm Em F G
variations - click chord images
Transpose chords:
Tuning:
Cool service:
View: Size:
A  A  A
Rating:
Layout:
  • Currently 3/5 Stars.
  • 1
  • 2
  • 3
  • 4
  • 5
 
Accuracy:
  • Currently 2.6/5 Stars.
  • 1
  • 2
  • 3
  • 4
  • 5
 
click stars to rate
Chordie recommends:
Learn how to play guitar at JamPlay.com
Songbook:
Login to add this song to your songbook
Support the artist
Preview/buy this song
MSN Music
Why this non-profit ad?

 
login to add comments/video/corrections