Guitar Tabs, Chords and Lyrics


Love Hurts   Incubus



Song         : Love Hurts
Band         : Incubus
Tabbed by    : Brandon Philip Llapitan
E add/Cp No. : brandon_rakista@yahoo.com/09064856396
Tuning       : Standard 



Solo : (02:33-02:58)

Gtr 1
e----------------------------------------------------------------|
b----15----12~--12-15-12-15~-15--17-15-17-15~--17-17-15----------|
g-xx—14b16----------------------------------------------14-12-16-|
d-xx-------------------------------------------------------------|
a----------------------------------------------------------------|
E----------------------------------------------------------------|

Gtr 1
e--------------------------------------------15-12-------------|
b-15----12~-12-15-12-15~-15--17-15-17-15~-17-------15----------|
g-14b16-----------------------------------------------12~--12\-|
d--------------------------------------------------------------|
a--------------------------------------------------------------|
E--------------------------------------------------------------|

Gtr 1 
e---------------------------------------------------------------|
b----------------------------------------------------------8----|
g-7/9~----9p7---7-9/12-9~----9\7\4-/12-4~----4/7-7~----7/9---4~-|=======================|
d-------------9-------------------------------------------------|                       |
a---------------------------------------------------------------|                       |
E---------------------------------------------------------------|                       | 
                                                                                        |Gtr 1 & Gtr 2
Gtr 2                                                                                   |
e-----------------------------------------------------------------------------------|   |
b-----------------------------------------------------------------------------------|   |
g-------------------------------12-------(3x) then-------------------------------12-|===|
d-12-14-12-14-12-14-12-14-12-14----14-12-----------12-14-12-14-12-14-12-14-12-14----|
a-----------------------------------------------------------------------------------|
E-----------------------------------------------------------------------------------|



Solo Part 2 : (03:09-03:10)

e----------------|
b-15b17-------15-|
g-------16-14----|
d----------------|
a----------------|
E----------------|



Guitar Legend : 

x = muted note
b = bend 
~ = vibrato 
/ = slide up 
\ = slide down


Important: The song above is NOT stored on the Chordie server. The original song is hosted at www.guitaretab.com. Chordie works as a search engine and provides on-the-fly formatting. Chordie does not index songs against artists/composers will. To remove this song please click here.

This song is displayed as text-only. Transposing and tuning is only available for chordpro-songs.

Login - add to songbook

Rating click stars to rate

Layout
Accuracy

SHARE PAGE  




You need to log in to post comments