Guitar Tabs, Chords and Lyrics


Nowhere Fast   Incubus








Incubus - Nowhere Fast
Drop D tuning
Guitar intro
e|------------------------|----|
B|------------------------|----|
G|--00--------------------|----|
D|----44--------333\888---|then|
A|-------00-----333\888---|----|
D|----------00--333\888---|----|
                      Rock out part (Chorus)
e|------------------------------------------------------------|
B|------------------------------------------------------------|
G|-------------------------------------------------555--------|
D|-4444-0h333\888-4444-0h333\888-xxx4-0h333\888-44-555--------|
A|-0000-0h333\888-0000-0h333\888-xxx0-0h333\888-00-333--------|
D|-0000-0h333\888-0000-0h333\888-xxx0-0h333\888-00-555--------|
                 
                   part where lyrics start
e|--2----14-----------------2----14-----------2---2----14-------------------|
B|--2---------10------------2---------10--11--2---2----------0--------------|
G|--2---------9-------------2---------9---10--2---2----------9----11h12bend-|
D|--0---------0 ~let ring~ -0---------0---0---0---0----------0--------------|
A|--------------------------------------------------------------------------|
D|-----------10----------------------10---11----------------10--------------|

e|--2----14---------------2-----------------------------------|
B|--2---------10----11----2-----------------------------------|
G|--2---------9-----10----2---7------------10---7---12--------|
D|--0---------0------0----0---7-~let ring~-10---7---12--------|
A|----------------------------5------------8----5---10--------|
D|-----------10-----11--------5------------8----5---10--------|

Play chorus after part above, then after the chorus play the part above

                                Solo
e|------------------------9-----7--------------------------------------------|
B|-----------------7--------7-----7------------5-----------------8-----------|
G|-------------------6--------7-----7------------7-----------------10--------|
D|------5---5\7--------0-------------------7-------7-------10---------10-----|
A|----0---0-----0------------------------5---5-------5----8----8---------10--|
D|--0----------------------------------5----------------8--------------------|
                        repeat 4 times, then
e|--------------------------------------------------|
B|------------------------------------------3-------|
G|----9\11-11-14-14--11-9--7-6\77-6\7--1110-2-------|
D|----x-x--x--x---x--x--x--x-x-xx-4\5--1110-0-------|
A|----7\9--9--12-12--9--7--5-4\55-4\5--1110-0-------|
D|--------------------------------4\5--1110-0-------|

e|------------------------------------------------------|
B|------------------------------------------------------|
G|----9\11-11-14-14--11-9--7-6\77--8--------------------|
D|----x-x--x--x--x---x--x--x-x-xx--8~plam mute~---------|
A|----7\9--9--12-12--9--7--5-4\55--8~play alot of times~|
D|---------------------------------8--------------------|
play intro again then chorus

                                 Outro
e|---------------------------------------------------------------------------|
B|---------------------------------------------------------------------------|
G|---------------------------------------------------------------------------|
D|-4444-0h101010\333-4444-0h101010\333-4444-0h101010\333-4444-0h101010\333-0~|
A|-0000-0h101010\333-0000-0h101010\333-0000-0h101010\333-0000-0h101010\333-0~|
D|-0000-0h101010\333-0000-0h101010\333-0000-0h101010\333-0000-0h101010\333-0~|

If you have comments about my tabbing, email at booincubus@aol.com, but you 


Important: The song above is NOT stored on the Chordie server. The original song is hosted at www.guitaretab.com. Chordie works as a search engine and provides on-the-fly formatting. Chordie does not index songs against artists'/composers' will. To remove this song please click here.

This song is displayed as text-only. Transposing and tuning is only available for chordpro-songs.

Login - add to songbook

Rating click stars to rate

Layout
Accuracy

SHARE PAGE  




You need to log in to post comments