Chordie logo


Circles   Incubus



Incubus
Morning View: Circles
tuning: Drop-D

intro: w/ distortion and volume swells
e:------------------------------------------|
B:------------------------------------------|
G:------------------------------------------|
D:------------------------------------------|
A:--0--0--0--0--0-0-0-0-0-0-0-0-0-----------|
D:--0--0--0--0--0-0-0-0-0-0-0-0-0-----------|

intro: part 2                       then:
e:-------------------------------   ------------------------------|
B:-------------------------------   ------------------------------|
G:-------------------------------   ------------------------------|
D:--------------------3-3-3-3----   --------------------1/3-3-3---|
A:------5-----5-------5-5-5-5----   ------1-----1-------1/3-3-3---|
D:--0-3---0-3---3-0---3-3-3-3----   --0-3---0-3---3-0---1/3-3-3---|

fill:
e:---------------------|
B:---------------------|
G:-------------5-5-5---|
D:-0-0---0-0---0-0-0---|
A:-0-0---0-0---3-3-3---|
D:-0-0---0-0---5-5-5---|


verse:
e:------------------------------------------------------------------------|
B:------------------------------------------------------------------------|
G:-7-7--7-7/17--7-7--7-7/17--17-17-17-17--14-14-14-14--8-8-8-8--5-5-5-5---|
D:------------------------------------------------------------------------|
A:-5-5--5-5/15--5-5--5-5/15--15-15-15-15--12-12-12-12--6-6-6-6--3-3-3-3---|
D:------------------------------------------------------------------------|

fill 2:
e:-----------------------|
B:-----------------------|
G:-------5-5-5-5-5-5-----|
D:--1-1--0-0-0-0-0-0-----|
A:--1-1--3-3-3-3-3-3-----|
D:--1-1--5-5-5-5-5-5-----|

chorus:
e:---------------------------|
B:---------------------------|
G:--7-7--7-7-7--7-7-7--7--5--|
D:------------------------5--|
A:--5-5--5-5-5--5-5-5--5--3--|
D:------------------------5--|


bridge: turn guitar's volume down to around 1 or 2
e:---------------------------------|
B:---------------------------------|
G:---------------------------------|
D:--5---4---3----5---4---3---3-----|
A:--5---0---1----5---0---1---1-----|
D:--5---0---3----5---0---3---1-----|
the last time, swell volume back up on the last chord

Thats it. it goes back to the fills and chorus, intro, etc.


Important: The song above is NOT stored on the Chordie server. The original song is hosted at www.guitaretab.com. Chordie works as a search engine and provides on-the-fly formatting. Chordie does not index songs against artists/composers will. To remove this song please click here.

This song is displayed as text-only. Transposing and tuning is only available for chordpro-songs.

Login - add to songbook

Rating click stars to rate

Layout
Accuracy

SHARE PAGE  




You need to log in to post comments