Guitar Tabs, Chords and Lyrics


Wish You Were Here   Incubus



I looked at the other tabs on this site and didn't agree completely 
with them.  I thought this way was an easier way to play this great 
song!  This is my first tab so bare w/ me and enjoy.

Intro/chorus:  Clean, 2nd time thru add dist.(add acoustic guitar for volume)

x2

e-0--0-0---------------------------------------------------------------
b-0--0-0---------------------------------------------------------------
g-4--4-4---------------------------------------------------------------
d-2--2-2----9---9--9-9--9-9----------0-7--7//9-9-9--9-0----------------
a-0--0-0-0--7---7--7-7--7-7-0-9--9-9-0-5--5//7-7-7--7-0----------------
E-0--0-0-0--7---7--7-7--7-7-0-7--7-7-0-------0-0-0--0-0----------------

e-0--0-0---------------------------------------------------------------
b-0--0-0---------------------------------------------------------------
g-4--4-4-------------------------------------------9//11-11------------
d-2--2-2-0--9---9--9-9--9-9----------------2-2-----x//-x--x------------
a-0--0-0-0--7---7--7-7--7-7-0-4--4-4/7--7--2-2-----7//-9--9------------
E-0--0-0-0--7---7--7-7--7-7-0-2--2-2/5--5--0-0-----0-------------------

verse:  x3 w/ slight distortion w/ delay

e-----0-------------------12---------------0---------------------------
b---7---7---7-----------0----0-9h10------7---7---7-------------9-------
g-9-------9---6------------------------9-------9---6---------9---9-----
d------------------9h11---------------------------------9h11-------11p9
a----------------------------------------------------------------------
E----------------------------------------------------------------------

chorus x2

verse  x3

chorus x2

bridge:  x6

e----------------------------------------------------------------------
b----------------------------------------------------------------------
g-6--6-6--6-6--6-6--6//9--9--9//7--7-7--7-7--7-7--7-7-7-7--------------
d-x--x-x--x-x--x-x--x//x--x--x//x--x-x--x-x--x-x--x-x-x-x--------------
a-4--4-4--4-4--4-4--4//7--7--7//5--5-5--5-5--5-5--5-5-5-5--------------
E-2--2-2--2-2--2-2--2//5--5--5//3--3-3--3-3--3-3--3-3-3-3--------------

intro/chorus

x1

chorus x2

end note

e-0-----------------
b-0-----------------
g-4-----------------
d-2-----------------
a-0-----------------
E-0-----------------

thank you!  if you have any comments or whatever, email me @ brianshemwell@hotmail.com
remember, this is my first tab but i think it is pretty close.  after all i'm really a 


Important: The song above is NOT stored on the Chordie server. The original song is hosted at www.guitaretab.com. Chordie works as a search engine and provides on-the-fly formatting. Chordie does not index songs against artists'/composers' will. To remove this song please click here.

This song is displayed as text-only. Transposing and tuning is only available for chordpro-songs.

Login - add to songbook

Rating click stars to rate

Layout
Accuracy

SHARE PAGE  




You need to log in to post comments