Guitar Tabs, Chords and Lyrics


Drive   Incubus




listen for timing
Into, verse, and chorus
e------0-0-0------x-x------0-0-0----x-x---
b------8-8-8------7-7------0-0-0----x-x---
g------0-0-0------0-0------0-0-0----x-x---
d------9-9-9------7-7------5-5-5----5-5---
a----7-7-7-7----5--------3-3-3-3----0-0---
E--0--------------------------------5-5---

listen for timing and correct strums
pre-chorus
e--0-0-0-0-0----0-0-0-0-0--------
b--0-0-0-0-0----3-3-3-3-3--------
g--0-0-0-0-0----0-0-0-0-0--------
d--5-5-5-5-5----3-3-3-3-3--------
a--3-3-3-3-3---------------------
E--------------------------------

solo:
e--0-0-0-0-0/--7/--5/--3--------------------------------------5/7-7--7/5--5/10--7--5--7--
b---------------------------10/--3/--5--------5-----5-----------------------------------5
g--------------------------------------7^7------7^----7^----8----------------------------
d----------------------------------------------------------------------------------------
a----------------------------------------------------------------------------------------
E----------------------------------------------------------------------------------------

e-------------5----5/3-------------|
b--3/5-----------------5/3---------|
g------7^7-----------------4/2-2/4-|
d----------------------------------|
a----------------------------------|
E----------------------------------|


Important: The song above is NOT stored on the Chordie server. The original song is hosted at www.guitaretab.com. Chordie works as a search engine and provides on-the-fly formatting. Chordie does not index songs against artists'/composers' will. To remove this song please click here.

This song is displayed as text-only. Transposing and tuning is only available for chordpro-songs.

Login - add to songbook

Rating click stars to rate

Layout
Accuracy

Jango Player

SHARE PAGE  




You need to log in to post comments