Guitar Tabs, Chords and Lyrics


Drive   Incubus




-Standard Tuning

listen to get timing and strumming
intro/chorus/verse:

E|-------0-0-0-----------------------------------------
B|-------8-8-8---x-x---7-7---5--5-5-5---x-x---0-0------
G|-------0-0-0---x-x---7-7---4--4-4-4---x-x---2-2------
D|---9---9-9-9---x-x---5-5---5--5-5-5---x-x---2-2------
A|-------7-7-7---x-x---7-7---3--3-3-3---x-x---0-0------
E|-0-----0-0-0---------------3--3-3-3------------------

** "x" indicates a palm mute over the next chord to be played
pre-chorus:

E|-0--0-0-0-0-0---0--0-0-0-0-0-0---0--0-0-0-0-0---0--0-0-0-0-0-0--
B|-0--0-0-0-0-0---2--2-0-2-0-2-0---3--3-3-3-3-3---2--2-0-2-0-2-0--
G|-0--0-0-0-0-0---0--0-0-0-0-0-0---0--0-0-0-0-0---0--0-0-0-0-0-0--
D|-2--2-2-2-2-2---2--2-2-2-2-2-2---2--2-2-2-2-2---2--2-2-2-2-2-2--
A|-3--3-3-3-3-3---2--2-2-2-2-2-2---3--3-3-3-3-3---0--0-0-0-0-0-0--
E|-0--0-0-0-0-0---0--0-0-0-0-0-0---0--0-0-0-0-0---0--0-0-0-0-0-0--

E|--0--
B|--2--
G|--0--
D|--2--
A|--0--
E|--0--
* the second time the pre-chorus is played it ends on this single chord, instead of the entire last riff.  Then the Chorus is played.
 lead solo (chorus still being played in background):

E|----------7-5----5-------------------------5--7-7-7-5-10-7-5-7-------------
B|-5-5-5-5------8-------5-5----5-5---5-5--8----------------------5-----5-5---
G|-------------------7------7--------------------------------------7-7-----7-
D|---------------------------------------------------------------------------
A|---------------------------------------------------------------------------
E|---------------------------------------------------------------------------

E|-5-5-5-5-------------------------------
B|----------8-8--5-5---------------------
G|-------------------7-------------------
D|----------------------9-7-7-9----------
A|---------------------------------------
E|---------------------------------------
At end of song, the last thing played is the first part of the pre-chorus:

E|--0--0-0-0-0-0-----0------
B|--0--0-0-0-0-0-----2------
G|--0--0-0-0-0-0-----0------    let last chord ring
D|--2--2-2-2-2-2-----2------
A|--3--3-3-3-3-3-----2------
E|--0--0-0-0-0-0-----0------


Important: The song above is NOT stored on the Chordie server. The original song is hosted at www.guitaretab.com. Chordie works as a search engine and provides on-the-fly formatting. Chordie does not index songs against artists'/composers' will. To remove this song please click here.

This song is displayed as text-only. Transposing and tuning is only available for chordpro-songs.

Login - add to songbook

Rating click stars to rate

Layout
Accuracy

Jango Player

SHARE PAGE  




You need to log in to post comments