"yes"; ?> LOVE WILL COME TO YOU by Indigo Girls - guitar chords, guitar tabs and lyrics - chordie

LOVE WILL COME TO YOU

Indigo Girls

------------------------------------

   Rhythm Figure 1--------------------------------------------------------

 G1DBm7
            ]        ]        ]         ]]]                                                                         
D+---------------------------------+-----------------4---------------+
A|-----------0-------0-------0-----|-----------0---------------0-----|
G|-------2-------2-------2---------|-------2---------------2-------2-|
D|-----4-------4-------4-------4---|-----0-------0-------0-------0---|
A|---------------------------------|-0h2-----2-------2-------2-------|
D+-0-------0-------0-------0-------+---------------------------------+

G2 + + + + | + + + + |
D+---------------------------------+---------------------------------+
A|---------------------------------|-------4---5-----7===========----|
G|---------------------------------|---------------------------------|
D|---------------------------------|---------------------------------|
A|---------------------------------|---------------------------------|
D+---------------------------------+---------------------------------+
----------------------------------------------------------------------|

 Bm6Gadd9
          ]        ]        ]                  ]        ]        ]             
+-----------------2---------------+-0---------------0---------------+
|-----------0---------------0-----|-----------0---------------0-----|
|-------1---------------1-------0-|-------0-------0-------0-------0-|
|-----0-------0-------0-------0---|-----0-------0-------0-------0---|
|-0h2-----2-------2-------2-------|---------------------------------|
+---------------------------------+-5-------5-------5-------5-------+

| + + + | + + + + |
+-----------------4===========----+-0---------------0---------------+
|-------4---5---------------------|-------4---0-----------4---0-----+
|---------------------------------|---------------------------------|
|---------------------------------|---------------------------------|
|---------------------------------|---------------------------------|
+---------------------------------+---------------------------------+

] ] ] ] ] ] ] ] ]]]]]]]]
+-----------------+-----------------+-----------------+-----------------+
|-----------------|-----------------|-----------------|-----------------|

|-RF1>>>>>>>>>>>>>>>>>>>>>>>>>>>>>>>>>>>>>>>>>>>>>>>>>>>>>>>>>>>>>>>>>>>|
|-----------------|-----------------|-----------------|-----------------|
|-----------------|-----------------|-----------------|-----------------|
+-----------------+-----------------+-----------------+-----------------+

| + + + + | + + + + | + + + + | + + + + |
+-----------------+-----------------+-0-------0-------+-0-------0-------+
|----4-5--7=====--|----4-5--5=====--|----4-0-----4-0--|----4-0-----4-0--|
|-----------------|-----------------|-----------------|-----------------|
|-----------------|-----------------|-----------------|-----------------|
+-----------------+-----------------+-----------------+-----------------+

Verse 1:
] ] ] ] ] ] ] ] ]]]]]]]]
+-----------------+-----------------+-----------------+-----------------+
|-----------------|-----------------|-----------------|-----------------|

|-RF1>>>>>>>>>>>>>>>>>>>>>>>>>>>>>>>>>>>>>>>>>>>>>>>>>>>>>>>>>>>>>>>>>>>|
|-----------------|-----------------|-----------------|-----------------|
|-----------------|-----------------|-----------------|-----------------|
+-----------------+-----------------+-----------------+-----------------+

| + + + + | + + + + | + + + + | + + + + |
+-0===============+-----------------+---------0-------+-0-------0=======+
|-----------------|-----------------|------------4-0--|----4-0----------|
|-----------------|-----------------|-----------------|-----------------|
|-----------------|-----------------|-----------------|-----------------|
|-----------------|-----------------|-----------------|-----------------|
+-----------------+-----------------+-----------------+-----------------+

] ] ] ] ] ] ] ] ]]]]]]]]
+-----------------+-----------------+-----------------+-----------------+
|-----------------|-----------------|-----------------|-----------------|

|-RF1>>>>>>>>>>>>>>>>>>>>>>>>>>>>>>>>>>>>>>>>>>>>>>>>>>>>>>>>>>>>>>>>>>>|
|-----------------|-----------------|-----------------|-----------------|
|-----------------|-----------------|-----------------|-----------------|
+-----------------+-----------------+-----------------+-----------------+

| + + + + | + + + + | + + + + | + + + + |
+-----------------+-----------------+---------0-------+-0-------0=======+
|-----------------|-----------------|------------4-0--|----4-0----------|
|-----------------|-----------------|-----------------|-----------------|
|-----------------|-----------------|-----------------|-----------------|
|-----------------|-----------------|-----------------|-----------------|
+-----------------+-----------------+-----------------+-----------------+
Rhythm Figure 2----------------------------------------------------------

 G1Em7susD/F#
           ]        ]        ]                  ]        ]        ]            
+-0---------------0---------------+-0---------------0---------------+
|-----------0---------------0-----|-----------0---------------0-----|
|-------0---------------0---------|-------2---------------2---------|
|-----0-------0-------0-------0---|-----4-------4-------4-------4---|
|---------------------------------|---------------------------------|
+-2-------2-------2-------2-------+-4-------4-------4-------4-------+
-----------------------------------------------------------------------|

 Gsus2A7sus
          ]        ]        ]                  ]        ]        ]            
+-0---------------0---------------+-0---------------0---------------+
|-----------0---------------0-----|-----------0---------------0-----|
|-------0---------------0---------|-------0---------------0---------|
|-----0-------0-------0-------0---|-----0-------0-------0-------0---|
|---------------------------------|---------------------------------|
+-5-------5-------5-------5-------+-7-------7-------7-------7-------+

Verse 2:
] ] ] ] ]]]]]]]]]]]]
+---------------------------------+---------+---------+---------+
|---------------------------------|---------|---------|---------|

|-RF1>>>>>>>>>>>>>>>>>>>>>>>>>>>>>>>>>>>>>>>>>>>>>>>>>>>>>>>>>>>|
|---------------------------------|---------|---------|---------|
|---------------------------------|---------|---------|---------|
+---------------------------------+---------+---------+---------+
| Rhythm Figure 3--------------------------------------------------|

| + + + + | + + + + | + + + + | + + + + |
+-0---0-0---0---0-0---0-0---0---0-+---------+---------+---------+
|-5---------------5---------------|---------|---------|---------|
|-7---------------7---------------|----R----|----R----|----R----|
|---------------------------------|---------|---------|---------|
|---------------------------------|---------|---------|---------|
+---------------------------------+---------+---------+---------+

] ] ] ] ] ] ] ] ] ] ] ] ] ] ]]
+---------+---------+---------+---------+
|---------|---------|---------|---------|

|-RF1>>>>>>>>>>>>>>>>>>>>>>>>>>>>>>>>>>>|
|---------|---------|---------|---------|
|---------|---------|---------|---------|
+---------+---------+---------+---------+

| + + + + | + + + + | + + + + | + + + + |
+---------+---------+---------+---------+
|---------|---------|---------|---------|

|-RF3>>>>>>>>>>>>>>>>>>>>>>>>>>>>>>>>>>>|
|---------|---------|---------|---------|
|---------|---------|---------|---------|
+---------+---------+---------+---------+

] ] ] ] ] ] ] ] ]]]]]]]]
+-----------------+-----------------+-----------------+-----------------+
|-----------------|-----------------|-----------------|-----------------|

|-RF2>>>>>>>>>>>>>>>>>>>>>>>>>>>>>>>>>>>>>>>>>>>>>>>>>>>>>>>>>>>>>>>>>>>|
|-----------------|-----------------|-----------------|-----------------|
|-----------------|-----------------|-----------------|-----------------|
+-----------------+-----------------+-----------------+-----------------+
| Rhythm Figure4----------------------------------------------------------|

| + + + + | + + + + | + + + + | + + + + |
+-0-------0-------+-0-------0-------+-0-------0-------+-0-------0-------+
|-0-00-0-00-00-0-0|-0-00-0-00-00-0-0|-0--0-0-00--0-0-0|-0--0-0-00--0-0-0|
|-0-------0-------|-2-------2-------|-4-------4-------|-6-------6-------|
|-0-------0-------|-4-------4-------|-0-------0-------|-0-------0-------|
|-----------------|-----------------|-----------------|-----------------|
+-2-------2-------+-4-------4-------+-5-------5-------+-7-------7-------+

Chorus:
Rhythm Figure 5----------------------------------------------

 DA/DGadd9
      ]        ]              ]    ]      ]  ]  ]  ]    ]  ]  ]  ]                  
+-0-------0-------+-0-------0-------+---------+---------+
|-0--0-0-00--0-0-0|-0-00-0-00-00-0-0|---------|---------|
|-2-------0-------|-0-------0-------|---------RR--------|
|-4-------2-------|-0-------0-------|---------|---------|
|-0-------0-------|-----------------|---------|---------|
+-0-------0-------+-5-------5-------+---------+---------+
| Rhythm Figure 6--------------------------------------------

| + + + + | + + + + | + + + + | + + + + |
+-0-------0-------+-0-------0-------+---------+---------+
|-0--0-0-00--0-0-0|-0-00-0-00-00-0-0|---------|---------|
|-2-------6-------|-4-------4-------|---------RR--------|
|-4-------0-------|-0-------0-------|---------|---------|
|-0---------------|-----------------|---------|---------|
+-0-------7-------+-5-------5-------+---------+---------+
--------------------------------------------------|

 Em7susD/F#+Gadd9
                            ]    ]      ]  ]  ]  ]                            
+-0-------0-------+-0-------0-------+-0}------+
|-0--0-0-00--0-0-0|-0-00-0-00-00-0-0|-0}------|
|-0-------2-------|-0-------0-------|-0}------|
|-0-------4-------|-0-------0-------|-0}------|
|-----------------|-----------------|--}------|
+-2-------4-------+-5-------5-------+-7}------+
------------------------------------|         |

| + + + + | + + + + | + + + + |
+-0-------0-------+-0-------0-------+-0}------+
|-0--0-0-00--0-0-0|-0-00-0-00-00-0-0|-0}------|
|-0-------2-------|-4-------4-------|-6}------|
|-0-------4-------|-0-------0-------|-0}------|
|-----------------|-----------------|--}------|
+-2-------4-------+-5-------5-------+-7}------+

] ] ] ] ] ] ] ] ] ] ] ] ] ] ]]
+---------+---------+---------+---------+
|---------|---------|---------|---------|

|-RF1>>>>>>>>>>>>>>>>>>>>>>>>>>>>>>>>>>>|
|---------|---------|---------|---------|
|---------|---------|---------|---------|
+---------+---------+---------+---------+

| + + + + | + + + + | + + + + | + + + + |
+---------+---------+---------+---------+
|---------|---------|---------|---------|

|-RF3>>>>>>>>>>>>>>>>>>>>>>>>>>>>>>>>>>>|
|---------|---------|---------|---------|
|---------|---------|---------|---------|
+---------+---------+---------+---------+

Verse 3:
] ] ] ] ]]]]]]]]]]]]
+---------------------------------+---------+---------+---------+
|---------------------------------|---------|---------|---------|

|-RF1>>>>>>>>>>>>>>>>>>>>>>>>>>>>>>>>>>>>>>>>>>>>>>>>>>>>>>>>>>>|
|---------------------------------|---------|---------|---------|
|---------------------------------|---------|---------|---------|
+---------------------------------+---------+---------+---------+

| + + + + | + + + + | + + + + | + + + + |
+-0---0-0---0---0-0---0-0---0-----+---------+---------+---------+
|-5---------------5-----7---7-----|---------|---------|---------|
|---------------------------------|----R----|----R----|----R----|
|---------------------------------|---------|---------|---------|
|---------------------------------|---------|---------|---------|
+---------------------------------+---------+---------+---------+

] ] ] ] ] ] ] ] ] ] ] ] ] ] ]]
+---------+---------+---------+---------+
|---------|---------|---------|---------|

|-RF2>>>>>>>>>>>>>>>>>>>>>>>>>>>>>>>>>>>|
|---------|---------|---------|---------|
|---------|---------|---------|---------|
+---------+---------+---------+---------+

| + + + + | + + + + | + + + + | + + + + |
+---------+---------+---------+---------+
|---------|---------|---------|---------|

|-RF4>>>>>>>>>>>>>>>>>>>>>>>>>>>>>>>>>>>|
|---------|---------|---------|---------|
|---------|---------|---------|---------|
+---------+---------+---------+---------+

Chorus:
] ] ] ] ] ] ] ] ] ] ] ] ] ] ]]]]]]]]]]
+---------+---------+---------+---------+---------+---------+
|---------|---------|---------|---------|---------|---------|

|-RF5>>>>>>>>>>>>>>>>>>>>>>>>>>>>>>>>>>>>>>>>>>>>>>>>>>>>>>>>
|---------|---------|---------|---------|---------|---------|
|---------|---------|---------|---------|---------|---------|
+---------+---------+---------+---------+---------+---------+

| + + + + | + + + + | + + + + | + + + + | + + + + | + + + + |
+---------+---------+---------+---------+---------+---------+
|---------|---------|---------|---------|---------|---------|

|-RF6>>>>>>>>>>>>>>>>>>>>>>>>>>>>>>>>>>>>>>>>>>>>>>>>>>>>>>>|
|---------|---------|---------|---------|---------|---------|
|---------|---------|---------|---------|---------|---------|
+---------+---------+---------+---------+---------+---------+

] ] ] ]
+---------------------------------+
|---------------------------------|

>>>>>>>>>>>>>>>>>>>>>>>>>>>>>>>>>|
|---------------------------------|
|---------------------------------|
+---------------------------------+

| + + + + |
+-0-----0---0---0-0-----0---0---0-+
|-0-----0---0---0-0-----0---0---0-|
|-6-----6---6---6-6-----6---6---6-|
|-0---------------0---------------|
|---------------------------------|
+-7---------------7---------------+

Solo:
 DBm7
          ]        ]        ]                  ]        ]        ]            
+-------12--14--------------------+-----12==========----------------+
|---------------------------------|---------------------12----------|
|-14--14--------14========--12--11|=====------------11h12-11--10--9=|
|---------------------------------|---------------------------------|
|---------------------------------|---------------------------------|
+---------------------------------+---------------------------------+
| Rhythm Figure 7 -----------------------------------------------------

| + + + + | + + + + |
+-0---------------0---------------+---------------------------------+
|-0-----0---0---0-0-----0---0---0-|-0-----0---0---0-0-----0---0---0-|
|-2---------------2---------------|-2---------------2---------------|
|-4---------------4---------------|-0---------------0---------------|
|-0---------------0---------------|-2---------------2---------------|
+-0---------------0---------------+---------------------------------+

 Bm6Gadd9
          ]        ]        ]                  ]        ]        ]            
+-----11==============------------+---------------------------------+
|---------------------------------|---(7)P8r7p5-5h7-5===============|
|===----------------------7-7---7-|---------------------------------|
|---------------------7h9---------|---------------------------------|
|---------------------------------|---------------------------------|
+---------------------------------+---------------------------------+
-----------------------------------------------------------------------|

| + + + + | + + + + |
+---------------------------------+---------------------------------+
|-0-----0---0---0-0-----0---0---0-|-0-----0---0---0-0-----0---0---0-|
|-1---------------1---------------|-0---------------0---------------|
|-0---------------0---------------|-0---------------0---------------|
|-2---------------2---------------|---------------------------------|
+---------------------------------+-5---------------5---------------+

+ + + + + + (PM) + +
+---------------------------------+---------------------------------+
|---------------------------------|---------------------------------|
|-------2===4===2===--------------|-------------------------------0-|
|--/4===------------4===4===2===0=|=============----0h2---------4---|
|---------------------------------|-------------0---------4/5-------|
+---------------------------------+---------------------------------+

| + + + + | + + + + |
+---------------------------------+---------------------------------+
|---------------------------------|---------------------------------|

|-RF7>>>>>>>>>>>>>>>>>>>>>>>>>>>>>>>>>>>>>>>>>>>>>>>>>>>>>>>>>>>>>>>>
|---------------------------------|---------------------------------|
|---------------------------------|---------------------------------|
+---------------------------------+---------------------------------+

] ] ] ] ]]]]
+---------------------------------+---------------------------------+
|-----5===========5p4p2-4---5-----|-------0===2===4===5===7==/9===7=|
|/4-------------------------------|---------------------------------|
|---------------------------------|-0h2h4---------------------------|
|---------------------------------|---------------------------------|
+---------------------------------+---------------------------------+

| + + + + | + + + + |
+---------------------------------+---------------------------------+
|---------------------------------|---------------------------------|

>>>>>>>>>>>>>>>>>>>>>>>>>>>>>>>>>>>>>>>>>>>>>>>>>>>>>>>>>>>>>>>>>>>|
|---------------------------------|---------------------------------|
|---------------------------------|---------------------------------|
+---------------------------------+---------------------------------+

] ] ] ] ] ] ] ] ] ] ] ] ] ] ] ]
+==-----------+---------+-0}------+-0}------+
|-------------|---------|-0}------|-0}------|
|-RF2(1st2bars)>>>>>>>>>|-0}------|-0}------|
|-------------|---------|-0}------|-0}------|
|-------------|---------|--}------|--}------|
+-------------+---------+-5}------+-7}------+

| + + + + | + + + + | + + + + | + + + + |
+-------------+---------+-0}------+-0}------+
|-------------|---------|-0}------|-0}------|
|-RF4(1st2bars)>>>>>>>>>|-4}------|-6}------|
|-------------|---------|-0}------|-0}------|
|-------------|---------|--}------|--}------|
+-------------+---------+-5}------+-7}------+

Chorus:
] ] ] ] ] ] ] ] ] ] ] ] ] ] ]]]]]]]]]]
+---------+---------+---------+---------+---------+---------+
|---------|---------|---------|---------|---------|---------|

|-RF5>>>>>>>>>>>>>>>>>>>>>>>>>>>>>>>>>>>>>>>>>>>>>>>>>>>>>>>>
|---------|---------|---------|---------|---------|---------|
|---------|---------|---------|---------|---------|---------|
+---------+---------+---------+---------+---------+---------+

| + + + + | + + + + | + + + + | + + + + | + + + + | + + + + |
+---------+---------+---------+---------+---------+---------+
|---------|---------|---------|---------|---------|---------|

|-RF6>>>>>>>>>>>>>>>>>>>>>>>>>>>>>>>>>>>>>>>>>>>>>>>>>>>>>>>|
|---------|---------|---------|---------|---------|---------|
|---------|---------|---------|---------|---------|---------|
+---------+---------+---------+---------+---------+---------+

 D
  ]  ]  ]  ]        ]    ]    ]                                                
+---------+----0----0-------+
|---------|------0-------0--|
>>>>>>>>>|---2----2---2----|
|---------|-----------------|
|---------|-----------------|
+---------+-0---------------+

| + + + + | + + + + |
+-0}------+-----------------+
|-0}------|-----------------|
|-6}------|-RF3(1stbar)>>>>>|
|-0}------|-----------------|
|--}------|-----------------|
+-7}------+-----------------+

Coda:
 Bm7C13
      ]    ]    ]              ]        ]    ]      ]    ]    ]    ]              
+-0-------0-------+-0---------------0=======+-0-------0-------+
|------0-------0--|-----------0-------------|------0-------0--|
|----2---2---2---2|-------0-------0---------|----2-------2----|
|---0-------0-----|-----0-------------------|-0-0-------0-----|
|-2-------2-------|-3---------------3=======|---------4-------|
+-----------------+-------------------------+-----------------+

| + + + + | + + + + | |
+-----------------+-0---0-0---0-----0-0-0-0=+===0===0===0===0=+
|-----------------|-7-----5---------5-7-9-10|===9===9===7===7=|
|--------R--------|-------------------------|-----------------|
|-----------------|-------------------------|-----------------|
|-----------------|-------------------------|-----------------|
+-----------------+-------------------------+-----------------+

 Bm7Gsus2A7sus
      ]    ]    ]                  ]    ]              ]    ]                  
+-0-------0-----------+-0-------0-------+-0-------0-------+
|------0--------0-----|------0-------0--|------0-------0--|
|----0---0---0------0-|----0---0---0---0|----0---0---0---0|
|---0-------0---------|---0-------0-----|---0-------0-----|
|-2-------2-----------|-----------------|-----------------|
+---------------------+-5-------5-------+-7-------7-------+

| + + + + | + + + + | + + + + |
+===0=====0--00-0-0---+-0-------0-------+-0-------0-------+
|===5=====5--00-0-0---|-0----0-------0--|------0-------0--|
|---------------------|-0--0---0---0---0|----6---6---6---6|
|---------------------|-0-0-------0-----|---0-------0-----|
|---------------------|-----------------|-----------------|
+---------------------+-5-------5-------+-7-------7-------+

] ] ] ] ] ] ] ]
+-4----4--4----4--+-4---------------+
|----5-------7----|------0-------0--|
|---0----0--7----0|----0---0---0---0|
|-----------------|---0-------0-----|
|-----------------|-----------------|
+-2-------4-------+-5-------7-------+

| + + + + | + + + + |
+-0}------2}------+-4=======5=======+
|-0}------0}------|-----------------|
|-0}------2}------|-----------------|
|-0}------4}------|-----------------|
|--}--------------|-----------------|
+-2}--------------+-----------------+

] ] ] ] ] ] ] ] ] ] ] ]]]]]
+-----------------+---------+---------+---------+
|-----------------|---------|---------|---------|

|-RF1>>>>>>>>>>>>>>>>>>>>>>>>>>>>>>>>>>>>>>>>>>>|
|-----------------|---------|---------|---------|
|-----------------|---------|---------|---------|
+-----------------+---------+---------+---------+

| + + + + | + + + + | + + + + | + + + + |
+-7--7-7--7--7-7--+---------+---------+---------+
|-----------------|---------|---------|---------|
|-----------------|----R----|----R----|---R-----|
|-----------------|---------|---------|---------|
|-----------------|---------|---------|---------|
+-----------------+---------+---------+---------+

] ] ] ] ] ] ] ] ]]]]]]]]
+-----------------+-----------------+-----------------+-----------------+
|-----------------|-----------------|-----------------|-----------------|

|-RF1>>>>>>>>>>>>>>>>>>>>>>>>>>>>>>>>>>>>>>>>>>>>>>>>>>>>>>>>>>>>>>>>>>>|
|-----------------|-----------------|-----------------|-----------------|
|-----------------|-----------------|-----------------|-----------------|
+-----------------+-----------------+-----------------+-----------------+

| + + + + | + + + + | + + + + | + + + + |
+-----------------+---------4=====--+-0-------0-------+-0-------0-------+
|----4-5--7=====--|----4-5----------|----4-0-----4-0--|----4-0-----4-0--|
|-----------------|-----------------|-----------------|-----------------|
|-----------------|-----------------|-----------------|-----------------|
|-----------------|-----------------|-----------------|-----------------|
+-----------------+-----------------+-----------------+-----------------+

+-0}---++
|-0}---||
|-2}---||
|-4}---||
|-0}---||
+-0}---++
| ||
+-0----++
|------||
|------||
|------||
|------||
+------++



A/D A7sus Bm6 Bm7 C13 D D/F# Em7sus Gadd9 Gsus2
variations - click chord images
Transpose chords:
Tuning:
Cool service:
View: Size:
A  A  A
Rating:
Layout:
  • Currently 2.6/5 Stars.
  • 1
  • 2
  • 3
  • 4
  • 5
 
Accuracy:
  • Currently 2.8/5 Stars.
  • 1
  • 2
  • 3
  • 4
  • 5
 
click stars to rate
Chordie recommends:
Learn to play songs at Jamplay.com with video guitar lessons
Songbook:
Login to add this song to your songbook
Support the artist
Preview/buy this song
MSN Music
Why this non-profit ad?

 
login to add comments/video/corrections