"yes"; ?> Peace by Insane Clown Posse - guitar chords, guitar tabs and lyrics - chordie

insane clown posse - PEACE Tabbed By: IGWT EMail: hbsurfer@cox.net
-------------------------------------- -------------------------------------- -------------------------------------- x2 ------------------------------------- --5--5--5--5-5-5--7--7--7--7-7-7------ 33-33-33-33-3-3-55-55-55-55-5-5-------
------------------ ------------------ ------------------ x2 7---5-----7------5 5-7-3-5---5--7-7-3 --5---3------5-9--
-------------------------------------- -------------------------------------- -------------------------------------- ------------------------------------- x2 --5--5--5--5-5-5--7--7--7--7-7-7------ 33-33-33-33-3-3-55-55-55-55-5-5-------
2-23-2-------------------------------- 3-3--3-3------------------------------ x2
2-2--2-2------------------------------ -------------------------------------- -------------------------------------- --------------------------------------
-------------------------------------- -------------------------------------- -------------------------------------- x2 ------------------------------------- --5--5--5--5-5-5--7--7--7--7-7-7------ 33-33-33-33-3-3-55-55-55-55-5-5-------
------------------ ------------------ ------------------ x2 7---5-----7------5 5-7-3-5---5--7-7-3 --5---3------5-9--
-------------------------------------- -------------------------------------- -------------------------------------- x2 ------------------------------------- --5--5--5--5-5-5--7--7--7--7-7-7------ 33-33-33-33-3-3-55-55-55-55-5-5-------
-------------------------------------- -------------------------------------- -------------------------------------- ----14----5--------------------------- -14-12--5-3--------------------------- x2 -12-----3-----------------------------
============================================================================































variations - click chord images
Transpose chords:
Tuning:
Cool service:
View: Size:
A  A  A
Rating:
Layout:
  • Currently 0/5 Stars.
  • 1
  • 2
  • 3
  • 4
  • 5
 
Accuracy:
  • Currently 1/5 Stars.
  • 1
  • 2
  • 3
  • 4
  • 5
 
click stars to rate
Chordie recommends:
Learn to play guitar with video-based, online guitar lessons at JamPlay.com
Songbook:
Login to add this song to your songbook
Support the artist
Preview/buy this song
MSN Music
Why this non-profit ad?

 
login to add comments/video/corrections