Guitar Tabs, Chords and Lyrics


Come On Over   Institute



Artist: institute
Song: Come on over
album: distort yourself
tab by: mr_munners@hotmail.com

intro pt1 (guitar 1 only)
play this note many times until pt 2
----
-13-
----
----
----
----

intro pt2 play this once (both guitars)
-------------------------------|
-------------------------------|
-9~-----9~------9~------9~-----|
-9~-----9~------9~------9~-----|
-7~-----7~------7~------7~-----|
-7~-----7~------7~------7~-----|

verse riff 1, play this x6 (both guitars)
-------------------------------|
-------------------------------|
-------------------------------|
-3330-------2223320------------|
-3330-------2223320------------|
-3330-------2223320------------|

verse riff 2, play this x3 (both guitars)
-------------------------------|
-------------------------------|
-------------------------------|
-3330--0----2223320------------|
-3330--0----2223320------------|
-3330--0----2223320------------|

verse riff 3, play once (both guitars)
---------|
---------|
---------|
-3330--0-|
-3330--0-|
-3330--0-|


Chorus, play once, repeat chords as necessary...

 guitar 1
|-------------------------------|
|-------------------------------|
|-9--------------------10-------|
|-x--------------------x--------|
|-7--------------------8--------|
|-------------------------------|
|guitar 2
|-------------------------------|
|-------------------------------|
|-9--------------------10-------|
|-9--------------------10-------|
|-7--------------------8--------|
|-7-----------------------------|

pre verse (guitar 1 only)
--------------|
--------------|
-99999999-----|
-99999999-----|
-77777777-----|
--------------|

verse riff 1, play this x4 (both guitars)
-------------------------------|
-------------------------------|
-------------------------------|
-3330-------2223320------------|
-3330-------2223320------------|
-3330-------2223320------------|

verse riff 2, play this x3 (both guitars)
-------------------------------|
-------------------------------|
-------------------------------|
-3330--0----2223320------------|
-3330--0----2223320------------|
-3330--0----2223320------------|

Chorus, play once, repeat chords as necessary...

 guitar 1
|-------------------------------|
|-------------------------------|
|-9--------------------10-------|
|-x--------------------x--------|
|-7--------------------8--------|
|-------------------------------|
|guitar 2
|-------------------------------|
|-------------------------------|
|-9--------------------10-------|
|-9--------------------10-------|
|-7--------------------8--------|
|-7-----------------------------|

then go straight to the interlude, play x2

 guitar 1
|-8-8-8-8-8-7-7-7-7---------------------------------3-3-3-3-2-2-2-|
|-------------------8-8-8-8-5-5-5-3-3-3-3-3-1-1-1-1---------------|
|-----------------------------------------------------------------|
|-----------------------------------------------------------------|
|-----------------------------------------------------------------|
|-----------------------------------------------------------------|
|guitar 2
|-----------------------------------------------------------------|
|-----------------------------------------------------------------|
|-----------------------------------------------------------------|
|-3330-0-0-0-0-0-0-0-2223320~------3330-0-0-0-0-0-0-0-2223320~----|
|-3330-0-0-0-0-0-0-0-2223320~------3330-0-0-0-0-0-0-0-2223320~----|
|-3330-0-0-0-0-0-0-0-2223320~------3330-0-0-0-0-0-0-0-2223320~----|

verse 3, play once (both guitars)
-----------------------------------------------------------------|
-----------------------------------------------------------------|
-----------------------------------------------------------------|
-3330-0-0-0-0-0-0-0-2223320~------3330---------------------------|
-3330-0-0-0-0-0-0-0-2223320~------3330---------------------------|
-3330-0-0-0-0-0-0-0-2223320~------3330---------------------------|

Chorus, play once, repeat chords as necessary...

 guitar 1
|---------------------------------|
|---------------------------------|
|-9--------------------10------11-|
|-x--------------------x-------x--|
|-7--------------------8-------9--|
|---------------------------------|
|guitar 2
|---------------------------------|
|---------------------------------|
|-9--------------------10------10-|
|-9--------------------10------11-|
|-7--------------------8-------8--|
|-7-------------------------------|

outro riff 1, play once (both guitars)
-------------------------------|
-------------------------------|
-------------------------------|
-3330--0----2223320------------|
-3330--0----2223320------------|
-3330--0----2223320------------|

outro riff 2, play once (both guitars)
---------|
---------|
---------|
-3330--0-|
-3330--0-|


Important: The song above is NOT stored on the Chordie server. The original song is hosted at www.guitaretab.com. Chordie works as a search engine and provides on-the-fly formatting. Chordie does not index songs against artists/composers will. To remove this song please click here.

This song is displayed as text-only. Transposing and tuning is only available for chordpro-songs.

Login - add to songbook

Rating click stars to rate

Layout
Accuracy

SHARE PAGE  




You need to log in to post comments