Chordie logo


Abraxas Annihilation   Integrity



------------------------------------------------------------------
	       ABRAXAS ANNIHILATION - Integrity
------------------------------------------------------------------

   verse 1
E|----------------------------------------------------------------
B|----------------------------------------------------------------
G|----------------------------------------------------------------
D|-----------3-3-3----5-5-5---------------------------------------
A|--3-3-3-2--1-1-1-2--3-3-3-2--3-3-3-2--2-2-2-2-2-2-2-2-----------
E|--1-1-1-0--------0--------0--1-1-1-0--0-0-0-0-0-0-0-0-----------

   chorus                     verse 2 
E|-------------------------|--------------------------------------
B|-------------------------|--------------------------------------
G|-------------------------|--------------------------------------
D|-------7/9--10-9---------|----------------10-9--------------10-9
A|--2----5/7-- 8-7--5-8-5--|--2--------------8-7---------------8-7
E|--0---------------3-6-3--|--0-0-0-0-0-0-0-----0-0-0-0-0-0-0-----

   
E|----------------------------------------------------------------
B|----------------------------------------------------------------
G|----------------------------------------------------------------
D|---------------10-9---------------------------------------------
A|----------------8-7-------3-3-3-3-------------------------------


Important: The song above is NOT stored on the Chordie server. The original song is hosted at www.guitaretab.com. Chordie works as a search engine and provides on-the-fly formatting. Chordie does not index songs against artists/composers will. To remove this song please click here.

This song is displayed as text-only. Transposing and tuning is only available for chordpro-songs.

Login - add to songbook

Rating click stars to rate

Layout
Accuracy

SHARE PAGE  




You need to log in to post comments