Guitar Tabs, Chords and Lyrics


Narc   Interpol



Band: Interpol
Song: Narc
Album: Antics
Tabber: Ricardo Pereda


Main riff (Daniel):
----------------------------|
----------------------------|
----------------------------|
-----------------------7----|
---7-9-10-10-----7-9-10--10-|
7-------------7-------------|

VERSE (Paul)                       (Paul)
"Touch Your Thighs im..."     "show some love & respect"
e---------------------|          e---------|
b---------------------|          b---------|
g--7~---/-4~-/--11~---|          g-7~-/-4~-|
d--7~---/-4~-/--11~---|          d-7~-/-4~-|     x2
a--5~---/-2~-/---9~---|          a-5~-/-2~-|
e---------------------|          e---------|

 (Paul)
"baby you can see that the gazing eye won't lie"
e---2--2---2--2---2--------|
b---3--3---3--3---3----x---|
g-4-4--4-4-4--4-4-4-4--x---| 

Important: The song above is NOT stored on the Chordie server. The original song is hosted at www.guitaretab.com. Chordie works as a search engine and provides on-the-fly formatting. Chordie does not index songs against artists'/composers' will. To remove this song please click here.

This song is displayed as text-only. Transposing and tuning is only available for chordpro-songs.

Login - add to songbook

Rating click stars to rate

Layout
Accuracy

Jango Player

SHARE PAGE  




You need to log in to post comments