Guitar Tabs, Chords and Lyrics


Heinrich Maneuver Live   Interpol



Song: Heinrich Maneuver (Live Edition)
Tabbed by: Keneticshark24/Silentcrisis

Notes: This tab was produced entirely from the live clip, so the tab will
not be exact. The audio quality is poor, and this is what I could make
out to the best of my ability. I will be adding to this as I figure out
more parts to the song, and as such, feedback will most definetely be 
appreciated. 

Thanks, and enjoy. A relatively simple song which features similar notes
to Slow Hands.

Introduction - Daniel Kessler


E  :----------------|----------------|----------------|----------------|
B  :----------------|----------------|----------------|----------------|
G  :----------------|----------------|----------------|----------------|
D  :----------------|----------------|----------------|----------------|
A  :----------------|--2-2-2---------|----------------|--2-2-2---------|
E  :-----------3-3--|---------3-3-3--|-5-5-5---3-3-3--|---------3-3-3--|


E  :----------------|----------------|----------------|----------------|
B  :----------------|----------------|----------------|----------------|
G  :----------------|----------------|----------------|----------------|
D  :----------------|----------------|----------------|----------------|
A  :----------------|--2-2-2---------|--2-2-2-2-2-----|----------5-5-5-|
E  :--5-5-5--0-0-0--|---------0-0-0--|----------------|3-3-3-3-3-------|


E  :----------------|----------------|----------------|----------------|
B  :----------------|----------------|----------------|----------------|
G  :----------------|----------------|----------------|----------------|
D  :----------------|----------------|----------------|----------------|
A  :----------7-7-7/10-2-2-2---------|----------------|--2-2-2---------|
E  :--5-5-5-5-------|----------3-3-3-|--5-5-5--3-3-3--|---------3-3-3--|


E  :----------------|----------------|----------------|----------------|
B  :----------------|----------------|----------------|----------------|
G  :----------------|----------------|----------------|----------------|
D  :----------------|----------------|----------------|----------------|
A  :----------------|--2-2-2---------|-2-5-2-5--------|----------------|


Important: The song above is NOT stored on the Chordie server. The original song is hosted at www.guitaretab.com. Chordie works as a search engine and provides on-the-fly formatting. Chordie does not index songs against artists/composers will. To remove this song please click here.

This song is displayed as text-only. Transposing and tuning is only available for chordpro-songs.

Login - add to songbook

Rating click stars to rate

Layout
Accuracy

SHARE PAGE  




You need to log in to post comments