Guitar Tabs, Chords and Lyrics


Uit De Schaduw  Ios

-------------------------------------------------



[G#m]Cadd9   [466444]x32030
Riff in couplet zijn variaties op dit schema:
|-----------------------|
|-9-7-------7-9-9/10-9--|
|-----9-8-9-------------|
|-----------------------|
|-----------------------|
|-----------------------|



[C#m]Van het vallen van de [E]avond [B]tot het einde van de nacht  [A]
[C#m]heb je weer eens te [A]ver gezocht ter[E]wijl het voor je voeten [B]lag
[C#m]Je bent van ver ge[E]komen, [B]je hebt het ver geb[A]racht
[C#m]dus als het even [A]tegenzit bed[D]enk dan wie het laatste [B]lacht
Stap uit de [E]schaduw en loop in de [A]zon
[B]kijk om je [E]heen en zie wat er [A]komt
[B]je haalt uit [G#m]elke nieuwe dag
A B E D - A – B
meer dan je ooit had verwacht


[C#m]Een groot en sterk ver[E]langen [B]of een kleine stille [A]wens
[C#m]zolang je durft te [A]dromen komt van[D]zelf voor jou dat ene mo[B]ment
Stap uit de [E]schaduw en loop in de [A]zon
[B]kijk om je [E]heen en zie wat er [A]komt
[B]je haalt uit [G#m]elke nieuwe dag
[A]meer dan je [B]ooit had ver[E]wacht
[D]  [-] m[A]eer dan je [B]ooit had ver[E]wacht
[D]  [-] m[A]eer dan je [B]ooit had ver[D]wacht
Je weet dat [C#m]niets voor altijd kan zijn,
[C]alles een [E]keer verdwijnt [C#m]achter de [C]horiz[E]on
je wilt wel [C#m]terug maar het maakt niet uit
[C]je kunt al[E]leen vooruit
[A]dus loop in de [B]zon ...
Solo: E - D – A – Cadd9
E – D – A (riff)

riff
e  |---------------|
B  |---------------|
G  |---------------|
D  |---2/12--------|
A  |-4-------------|
E  |---------------|



Stap uit de [E]schaduw en loop in de [A]zon
[B]kijk om je [E]heen en zie wat er [A]komt
[B]je haalt uit [G#m]elke nieuwe dag
[A]meer dan je [B]ooit had ver[E]wacht
[D]  [-] m[A]eer dan je [B]ooit had ver[E]wacht
[D]  [-] m[A]eer dan je [B]ooit had ver[E]wacht
[D]  [-] m[A]eer dan je [B]ooit had ver[E]wacht
[D]  [-] m[A]eer dan je [B]ooit had ver[E--]wacht
e||--------------|------------------||
B||-----------5--|-----------5h7p5--||
G||--------------|------------------||
D||-----6-9------|------6-9---------||
A||--/7----------|--/7--------------||
E||--------------|------------------||

Important: The song above is NOT stored on the Chordie server. The original song is hosted at www.guitaretab.com. Chordie works as a search engine and provides on-the-fly formatting. Chordie does not index songs against artists'/composers' will. To remove this song please click here.

Text color:
Chord color:
Chord grids: 
Font size:    
Page size: 

A B C C#m D E G#m
variations - click chord images

Login - add to songbook

Transpose chords

Tuning

Rating click stars to rate

Layout
Accuracy

SHARE PAGE  




You need to log in to post comments