Guitar Tabs, Chords and Lyrics


Altijd Wel Iemand  Ios

[G]  Er is altijd wel i[Dsus4]emand die meer aan je de[Am7sus4]nkt
[G]  Altijd wel [Dsus4]iemand voor wie je de [Am7sus4]hele wereld bent
[G]  Er is vast wel een [Dsus4]man, vast wel een [Am7sus4]vrouw
[G]  Die beter luistert dan [Dsus4]ik, die[Am7sus4] alles zou doen voor jou

Chorus (with bottle neck to High E: 15th Fret)
Maar als het [C9]moet, weet je dan niet dat ik[Emsus2] naast je sta
Weet je dan niet dat ik [F]alles voor je [C9]achterlaat
En met j[D]ou verder ga

Verse 2:

[G]  Er is altijd wel [Dsus4]iemand die je beter be[Am7sus4]grijpt
[G]  Die er veel vaker [Dsus]is, die ook veel lan[Am7sus4]ger blijft
[G]  Want ik ben er haast [Dsus4]nooit, ach je weet hoe het[Am7sus4] gaat, mijn lief
[G]  Ik ben steeds onde[Dsus4]rweg en ik kom altijd te [Am7sus4]laat.

Chorus: (again with bottle neck and stuff)

Maar als het [C9]moet, weet je dan niet dat ik[Emsus2] naast je sta
Weet je dan niet dat ik [F]alles voor je [C9]achterlaat
Ik ga [D]altijd weer naar je op [C9]zoek
Al lijkt of ik niet meer [Emsus2]aan je denk
Je geeft de rust die ik[F] als geen ander [C9]nodig heb
Om te [D]zijn wie ik ben

Bridge: (solo: on B|-12-7-9-5|)

[Em]   [Eb]   [D]  [C]Als geen ander begrijp je de onrust in [Em]mij
[Em]   [Eb]   [D]   A[C]ls geen ander verleidt je me bij je te z[Em]ijn
        [Am] En hoe vaak ik ook weg ben, hoe vaak ik ook vlucht
Bm (N.C.)
Ik kom altijd terug

Em | | | |
Em | | | |
Em | | | |
Em | | | |
Em | | | |
Em | | | |
Em | | Am | Am |


solo over bridge (with WahWah)
e-----------------------------------------------------------------12-----10--|
B-----------------------------------------------------------------9------7---|
G—7p5------------------7p5---------------------------------------------------|
D----------7p5-------------------7p5-----------------------------------------|
A-----------------5h7-----------------5h7------7-----------------------------|
E----------------------------------------------------------------------------|
-----12--10------7--8---10--12---(15)-------------|
-----9----7------4--5---7---9---------------------|
--------------------------------------------------|
--------------------------------------------------|
--------------------------------------------------|
--------------------------------------------------|


Chorus:

Maar als het [C]moet, weet je dan niet dat ik naast j[Em]e sta
Weet je dan niet dat ik [F]alles voor je achterla[C]at  [D]
Ik ga altijd weer naar je op z[C]oek
Al lijkt of ik niet meer [Em]aan je denk
Je geeft de rust die ik [F]als geen ander n[C]odig heb
Om te [D]zijn wie ik ben

Outro:

[G]  Er is altijd wel [D]iemand, maar niet als [Am]jij     [G]

(when having difficulties: mail me! Dpdrommel@hotmail.com or recharged@rockt.nl)

Important: The song above is NOT stored on the Chordie server. The original song is hosted at www.guitaretab.com. Chordie works as a search engine and provides on-the-fly formatting. Chordie does not index songs against artists'/composers' will. To remove this song please click here.

Text color:
Chord color:
Chord grids: 
Font size:    
Page size: 

Am Am7sus4 C C9 D Dsus Dsus4 Eb Em Emsus2 F G
variations - click chord images

Login - add to songbook

Transpose chords

Tuning

Rating click stars to rate

Layout
Accuracy

SHARE PAGE  




You need to log in to post comments