Chordie logo

Dearest Forsaken   Iron and Wine



Haven't had time to do much with this yet. Its was a 5 minute job. I'll fix the problems 
finish when i have time. Listen to the rythem, it should be easy to figure out the strumming.

Drop D

Tuning. DADGBE

Intro
E|-------------------0---------------|
B|-----------------x---x-x-x---------|
G|-----------------7---7-7-7---------|
D|-----------------0---0-0-0---------|  6X
A|--0---0--0-0-----0---0-0-0---------|
D|--10--9--0-0-----------------------|


E|-------------------0-------|    --------------|
B|-----------------x---x-x-x-|    --------------|
G|-----------------7---7-7-7-|    ---10---12--7-|
D|-----------------0---0-0-0-|9x  ----0----0--0-| Not sure about this part..
A|--0---0--0-0-----0---0-0-0-|    ----0----0--0-|
D|--10--9--0-0---------------|    --------------|



Important: The song above is NOT stored on the Chordie server. The original song is hosted at www.guitaretab.com. Chordie works as a search engine and provides on-the-fly formatting. Chordie does not index songs against artists/composers will. To remove this song please click here.

This song is displayed as text-only. Transposing and tuning is only available for chordpro-songs.

Login - add to songbook

Rating click stars to rate

Layout
Accuracy

SHARE PAGE  

You need to log in to post comments