Guitar Tabs, Chords and Lyrics


Pagan Angel And A Borrowed Car   Iron and Wine



Band: Iron and Wine
Song: Pagan Angel and a Borrowed Car
Tuning: DADGBd
Capo 4

this song consists of 2 riffs:

Riff 1:

d|------------------------|
B|------------------------|
G|------0h2---------------|
D|-----------------5p4p0--|
A|---0-------0--0---------|
D|---0-------0--0---------|

Riff 2 (im not 100% on this riff):

d|--------------------------|
B|--------------------------|
G|------5-/-7--7-/-5--0-----|
D|-----------------------4--|
A|---0---------0---------0--|


Important: The song above is NOT stored on the Chordie server. The original song is hosted at www.guitaretab.com. Chordie works as a search engine and provides on-the-fly formatting. Chordie does not index songs against artists/composers will. To remove this song please click here.

This song is displayed as text-only. Transposing and tuning is only available for chordpro-songs.

Login - add to songbook

Rating click stars to rate

Layout
Accuracy

SHARE PAGE  




You need to log in to post comments