Chordie logo

Infinite Dreams   Iron Maiden



Gtr I (E A D G B E) - 'Rythm - Clean'
Gtr II (E A D G B E) - 'Rythm 2 - Clean'
Gtr III (E A D G B E) - 'Lead - Mild Overdrive'
Gtr IV (E A D G B E) - 'Lead 2 - Mild Overdrive'

   4/4
    Gtrs I, II
    Q   E    E  E    E  E  E    Q   E    E E E E E
||---------------------------|---------------------|
||o-------------0------------|-------------0-------|
||-----------0-------0-----0-|-----------0---0---0-|
||--2---2---------------2----|------2----------2---|
||o--------------------------|--3------------------|
||---------------------------|---------------------|
|
|   Gtr III
|   Q   Q       Q       E  E    Q   H.
||---------------------------|---------------------|
||o--------------------------|---------------------|
||-----14b16---14b16---14-12-|-14--14b16-----------|
||---------------------------|---------------------|
||o--------------------------|---------------------|
||---------------------------|---------------------|


  Q   E    E  E    E  E  E    Q   E  E  E E  E E
|--------------------------|------------------------||
|-------------3------------|------------0----------o||
|----------2-------2-----2-|---------0----0----0----||
|-0---0---------------0----|------2----------2------||
|--------------------------|--3--------------------o||
|--------------------------|------------------------||
|
| Q   Q       Q       E  E    Q   E  Q  Q    E
|--------------------------|------------------------||
|--------------------------|-15--12----------------o||
|----14b16---14b16---14-12-|--------14-12---14------||
|--------------------------|------------------------||
|--------------------------|-----------------------o||
|--------------------------|------------------------||


    Q   E    E  E    E  E  E    Q   E    E E E E E
||---------------------------|---------------------|
||o-------------0------------|-------------0-------|
||-----------0-------0-----0-|-----------0---0---0-|
||--2---2---------------2----|------2----------2---|
||o--------------------------|--3------------------|
||---------------------------|---------------------|
|
|   Q   Q       Q       E  E    Q   H.
||---------------------------|---------------------|
||o--------------------------|---------------------|
||-----14b16---14b16---14-12-|-14--14b16-----------|
||---------------------------|---------------------|
||o--------------------------|---------------------|
||---------------------------|---------------------|
|
|   Gtr IV
|   Q   Q       Q       E  E    Q   H.
||---------------------------|---------------------|
||o----15b17---15b17---15-12-|-15--15b17-----------|
||---------------------------|---------------------|
||---------------------------|---------------------|
||o--------------------------|---------------------|
||---------------------------|---------------------|


  Q   E    E  E    E  E  E    Q   E  E E  E  E  E
|--------------------------|------------------------||
|-------------3------------|-----------0-----------o||
|----------2-------2-----2-|---------0----0-----0---||
|-0---0---------------0----|------2----------2------||
|--------------------------|--3--------------------o||
|--------------------------|------------------------||
|
| Q   Q       Q       E  E    Q   E  Q    Q.
|--------------------------|------------------------||
|--------------------------|-15--12----------------o||
|----14b16---14b16---14-12-|--------14---12---------||
|--------------------------|------------------------||

|--------------------------|-----------------------o||
|--------------------------|------------------------||
|
| Q   Q       Q       E  E    Q   E  Q    Q     E
|--------------------------|-17--14-12--------------||
|----15b17---15b17---15-12-|-------------15----15--o||
|--------------------------|------------------------||
|--------------------------|------------------------||
|--------------------------|-----------------------o||
|--------------------------|------------------------||

Rythm legend
W - whole; H - half; Q - quarter; E - 8th

That's the intro the way I hear it. I've focused on the rythm guitar, because i've seen 


Important: The song above is NOT stored on the Chordie server. The original song is hosted at www.guitaretab.com. Chordie works as a search engine and provides on-the-fly formatting. Chordie does not index songs against artists/composers will. To remove this song please click here.

This song is displayed as text-only. Transposing and tuning is only available for chordpro-songs.

Login - add to songbook

Rating click stars to rate

Layout
Accuracy

SHARE PAGE  

You need to log in to post comments