Iron Maiden

Iron Maiden


E-|----------------------------|

B-|----------------5-----------|

G-|------------------5--4^5----|

D-|-7--7-5^7^5^4^5----------5--|

A-|----------------------------|

E-|----------------------------|

E-|----------------------------|

B-|----------------------------|

G-|-5--5-4^5^5^2---------------|

D-|----------------5-4-2-------|

A-|----------------------5-3---|

E-|----------------------------|


 A5G5
E-|------|------||
B-|-10---|--8---||
G-|-9----|--7---||
D-|-7----|--5---||
A-|------|------||
E-|------|------||

Chorus:
 C5G5D5A5
E-|------------------||
B-|------------------||
G-|-5--------7-------||
D-|-5---5----7---7---||
A-|-3---5----5---7---||
E-|-----3--------5---||

Bridge: | |Fig.B
End chorus |Fig.A | 1+
E-|-----------------|--------------------------|--10--10-8-7-7^8^7----|
B-|-----------------|--------------------------|-------------------10-|
G-|-5--------7------|----------------------2-4-|----------------------|
D-|-5---5----7------|----------2-3---2-3-5-----|----------------------|
A-|-3---5----5------|----2-3-5-----5-----------|----------------------|
E-|-----3-----------|--5-----------------------|----------------------|

|End Bridge End:
E-|---------7-8-10--|----------------|---------------||
B-|----8-10---------|----------------|---------------||
G-|-10--------------|-7-7-7-7-7---5--|---------------||
D-|-----------------|-7-7-7-7-7---5--|--7-7-7-7--7---||
A-|-----------------|-5-5-5-5-5---3--|--7-7-7-7--7---||
E-|-----------------|----------------|--5-5-5-5--5---||

"How To Play it":
[Intro (Gtr.1) x 8
(Gtr.2) x 6, Gtr.2 comes at the 3rd time]
 Verse x 4
 Intro x 4
 Cborus x 4
 Intro x 4
 Verse x 4
 Cborus x 3
Bridge:
 End Cborus
[Fig.A (Gtr.2) x 4
Fig.B (Gtr.1) x 3
Play one time Fig.A and then comes Gtr.1 with Fig.B]
 Solo Bass
 End Bridge
 Intro, same at tbe start
 Verse x 4
 Cborus x 4
 End
=====
"Qued? desfallecido de escudri?ar la verdad"
S?CRATES









A5 C5 D5 G5
variations - click chord images
Transpose chords:
Tuning:
Cool service:
View: Size:
A  A  A
Rating:
Layout:
  • Currently 3.3/5 Stars.
  • 1
  • 2
  • 3
  • 4
  • 5
 
Accuracy:
  • Currently 3.1/5 Stars.
  • 1
  • 2
  • 3
  • 4
  • 5
 
click stars to rate
Chordie recommends:
Learn to play guitar with video-based, online guitar lessons at JamPlay.com
Songbook:
Login to add this song to your songbook
Support the artist
Preview/buy this song
MSN Music
Why this non-profit ad?

 
login to add comments/video/corrections