Guitar Tabs, Chords and Lyrics


Railway To Nowhere  Ironic Rockproject

G D/F# e
Sitting all along on the railroad
[C]    see the nig[G]ht has gone to end         [A]
feel this loneliness inside of me
there is no more time to spend
Refrain:
[G]    I?m travelin? on a [D/F#]train to nowhere    [G]
[C]don?t know where it?s goin? to              [D/A]
G D/F# e
travelling on a train to nowhere
[C]  all I wan[D/B]t is run to you   [G]
(ZS)
Waitin? for the next up station
I?m just waitin? for a change
a change of dreaming a change of feelin?
but someone watch me to a range
Refrain + ZS
Here is one more thing to mention
Oh I just want to know from you
did you left me on the station
The train is commin? where are you?
Refrain
ZS
Solo
ZS
ZS:
E:----------------------------------------------------------------------------
H:----------------------------------------------------------------------------
G:--2--4--0-------------2--4--0-----------0--2--4--7--9--12?16----------------
D:-------------0--2--0--------------0--2--------------------------------------
A:----------------------------------------------------------------------------
E:----------------------------------------------------------------------------

Solo:
H:-12-12-12-15-15-15-12-12-12-----------------12~-12-12-12------------------
G:-------------------------------------14-12-12-14-------------------12-14--
D:--------------------------------------------------------------------------
H:---------------------------------------------12/15\12~-12-----------------
G:---------12-14-12---------12-14-12-----------------------14-12-12---------
D:-12-12-------------12-12-------------14-----------------------------------
H:--------------------------------------------------------------------------
G:-------------12-16-12-----------------------------------------------------
D:-14-12-14-----------------------------------------------------------------

Fill ins
Part1:
e:-12---------------------
h:------15--12--15--13----

Part2:
h:--12--15--12----------------
g:-----------------12--14--12-  

Part3:
a:-----------12--14--12-13-14-12-------------12?10-------
e:-12--14----------------------------14-13-12------------  

The timing of the tab is not right but its my first tab so go easy on me
Comments and corrections are always welcome

Important: The song above is NOT stored on the Chordie server. The original song is hosted at www.guitaretab.com. Chordie works as a search engine and provides on-the-fly formatting. Chordie does not index songs against artists'/composers' will. To remove this song please click here.

Text color:
Chord color:
Chord grids: 
Font size:    
Page size: 

A C D/B D/F# G
variations - click chord images

Login - add to songbook

Transpose chords

Tuning

Rating click stars to rate

Layout
Accuracy

SHARE PAGE  




You need to log in to post comments