Kaali Ratein

Irtaash

e---------------------------------|

b---------------------------------|
G---------------------------------|
D--------6--------------2---------|
A--------6--------------2---------|
E---4-------------0---------------|
e-----------------------------------|
b-----------------------------------|
G-----------------------------------|
D----------4------------------------|
A----------4------------------------|
E---2-------------------------------|
e--------------------------------|
b--------------------------------|
G--------------------------------|
D--------6-----------------------|
A--------6-----------------------|
E---4----------------------------|

 G#5-B5-C#5
 this is the easiest one to play...
e-----------------------------------|
b-----------------------------------|
G------------------------------11---|
D--------6------------9--------11---|
A--------6------------9-------------|
E---4-------------7----------9------|


other positions are

 G#5-B5-C#5
e---------------------------------------|
b---------------------------------------|
G-------------------------4---------6---|
D--------6----------------4---------6---|
A--------6-----------2----------4-------|
E---4-----------------------------------|


ok...thats the basic....
now i will post my " assumptions "
yeah man !!....irtaash guys really rock !!
i mean, after EP...this is the only band so far that looks promising.... :)
anywayz....

when the vocalist starts singing... " kaali kaali raatoun mein..."

here, you can play

 G#5-E5-F#5
then

 G#5-B5-C#5
here it is guys.....
this sounds really good...only if you play it well ... :)
do leave some comments .... pleasE !!!!
and ohh !!! GOT A BETTER VERSION ?? DO POST IT !!! :D

you can contact me hashimkhaan@hotmail.com

bumps up and thumbs up guys !!!!
we all rock !!!!!!!!!!!!!!!! ;)


B5 C#5 E5 F#5 G#5
variations - click chord images
Transpose chords:
Tuning:
Cool service:
View: Size:
A  A  A
Rating:
Layout:
  • Currently 5/5 Stars.
  • 1
  • 2
  • 3
  • 4
  • 5
 
Accuracy:
  • Currently 3.2/5 Stars.
  • 1
  • 2
  • 3
  • 4
  • 5
 
click stars to rate
Chordie recommends:
Learn to play guitar with video-based, online guitar lessons at JamPlay.com
Songbook:
Login to add this song to your songbook
Support the artist
Preview/buy this song
MSN Music
Why this non-profit ad?

 
login to add comments/video/corrections