Barkada Ko

Isla Era

 A5-577655
 Dm-xxx222
Bm-xx9987

Intro:

Do this at the same time, always pick on the d string!!!

|-----------------10-5h7p5---------------|
|------7-10-7--------------7-8-8s10--10--|
|-7-9---------9-7------------------------|
|----------------------------------------|
|----------------------------------------|
|----------------------------------------|
|---------------------------------|
|------7-10-7------8-7h8p7--------|
|-7-9---------9-7----------7-9-7--|
|---------------------------------|
|---------------------------------|
|---------------------------------|


Do this 3x times, play it solo 1 time and 2 times with the drums then:

|-----------------------|
|--5h7--------7------7--|
|--5h7--------7------7--|
|--5h7--2-2h4-7------7--|
|----------------4h5----|
|-----------------------|


Verse 1:

Do the reggae thing!! Stroke the chords upward!!!

 DGA
 Ikaw, ako, tayo ang nagbuo
 DGA
 Samahan natin walang tatalo
 DGA
 Ako matalino, ikaw bobo (joke lang)
 DGA
 Pag-iisip naman ay buong-buo

|-----------------10-5h7p5---------------|
|------7-10-7--------------7-8-8s10--10--|
|-7-9---------9-7------------------------|
|----------------------------------------|
|----------------------------------------|
|----------------------------------------|
|---------------------------------|
|------7-10-7------8-7h8p7--------|
|-7-9---------9-7----------7-9-7--|
|---------------------------------|
|---------------------------------|
|---------------------------------|


 DGA
 Pabili nga ng sigarilyo
 DGA
 Isang stick ayos na ito
 DGA
 Paabot na rin ng posporo
 DGA
 Pag-sindi pre' fifty tayo

Chorus

In chorus, do not do the upward stroke but instead pluck it!!!
I will show u how cause there are some alt. plucking for sum chord!!!

 GAD
|---3----|-------|---5---|---2---|
|-----3--|---5---|-----5-|-----3-|
|-4------|-6---6-|-6-----|--2----|
|--------|-------|-------|-------|
|--------|-------|-------|-------|
|--------|-------|-------|-------|


 GADD
 Kaming lahat ay hindi patatalo
 GADD
 Sasabay kahit anong uso
 GADD
 Magkasama saan man patungo
 GGA
 Ok talaga ang barkada ko

Just listen to the song to find out where the alternative plucking will occur…

Interlude:

|-----------------10-5h7p5---------------|
|------7-10-7--------------7-8-8s10--10--|
|-7-9---------9-7------------------------|
|----------------------------------------|
|----------------------------------------|
|----------------------------------------|
|---------------------------------|
|------7-10-7------8-7h8p7--------|
|-7-9---------9-7----------7-9-7--|
|---------------------------------|
|---------------------------------|
|---------------------------------|
|-----------------------|
|--5h7--------7------7--|
|--5h7--------7------7--|
|--5h7--2-2h4-7------7--|
|----------------4h5----|
|-----------------------|


Verse 2: Do the same on verse 1!!!

Kumusta na pare ko
Gigimik na naman ba tayo
Gusto kong akyatin ang mt. apo
Tara na excited na ako

(Repeat Chorus)

 DDm
 Kung may problema ka
 GA
 Nandito ang barkada
 BmDm
 Huwag kang mangangamba
 A5
 ‘di ka nag-iisa

When u reach “nag”, pluck this:

 A5
|-----------------------|
|------5-------5--5---5-|
|----6---6---6---6--6---|
|-7--------7------------|
|-----------------------|
|-----------------------|


(Repeat Chorus 2x)

Outro:

Do this at the same time, always pick on the d string!!!

|-----------------10-5h7p5---------------|
|------7-10-7--------------7-8-8s10--10--|
|-7-9---------9-7------------------------|
|----------------------------------------|
|----------------------------------------|
|----------------------------------------|
|---------------------------------|
|------7-10-7------8-7h8p7--------|
|-7-9---------9-7----------7-9-7--|
|---------------------------------|
|---------------------------------|
|---------------------------------|


Play this twice!!! Then:

|----------------------------|
|--15151515--17171717-17b-15-|
|--14141414--16161616-16b-14-|
|----------------------------|
|----------------------------|
|----------------------------|


txt 09183865859-09268955888-09155499854 for comments!!!
e-mail or add me in friendster-rhen_steph@yahoo.com!!!


A A5 Bm D Dm G
variations - click chord images
Transpose chords:
Tuning:
Cool service:
View: Size:
A  A  A
Rating:
Layout:
  • Currently 2.8/5 Stars.
  • 1
  • 2
  • 3
  • 4
  • 5
 
Accuracy:
  • Currently 2.9/5 Stars.
  • 1
  • 2
  • 3
  • 4
  • 5
 
click stars to rate
Chordie recommends:
Learn to play songs at Jamplay.com with video guitar lessons
Songbook:
Login to add this song to your songbook
Support the artist
Preview/buy this song
MSN Music
Why this non-profit ad?

 
login to add comments/video/corrections