Chordie logo

Tajabone   Ismael Lo



Isma?l Lo "Tajabone"

: = Repeat between the two : signs.

Riff A		     Riff B
  Dmadd9/E		Fmaj13/E
|--------------0----|-----------'0----|        |
|------6---6-----6--|----6---6-----6--| Repeat |
|:---7---7---7-----:|:-7---7---7-----:|  two   |
|--7----------------|5----------------|previous|
|5------------------|-----------------|measures|
|-------------------|-----------------|        |

Riff A once
Riff B once

Then at the ' on the repeat of Riff B:
|------------0---------------------0-----0-----|
|----------1---1-----------------1---1-----1---|
|--------0-------0-------------2-------------2-|
|------2-----------2---------2-----------------|
|7-\-3--------------*2-3-2-0-----------0-------|
|----------------------------------------------|
Then the next part (w/ harmonica) + the Verse goes similar fingerstyle playing 
over the following chords (with small variations):

Dmadd9/E    G    C   Am
Between the C and Am chords include the small lick by the *.
That's pretty much it!



Important: The song above is NOT stored on the Chordie server. The original song is hosted at www.guitaretab.com. Chordie works as a search engine and provides on-the-fly formatting. Chordie does not index songs against artists/composers will. To remove this song please click here.

This song is displayed as text-only. Transposing and tuning is only available for chordpro-songs.

Login - add to songbook

Rating click stars to rate

Layout
Accuracy

SHARE PAGE  

You need to log in to post comments