Guitar Tabs, Chords and Lyrics


Our Disintegration   It Dies Today



I.D.T
Our disintegration
Drop C
ok, on this one you have to use your ears for the picking.
Intro:
(00:00)
Gtr I:
D---------------------------------------------|
A---------------------------------------------|
F---------------------------------------------|
C---------------------------------------------|
G-555-X-777-X-888-X-10-X-10-8-7----888----888-|
C-------------------------------888----555----|
Gtr II:
D---------------------------------------------------------------------|
A---------------------------------------------------------------------|
F---------------------------------------------------------------------|
C---------------------------------------------------------------------|
G-888-X-101010-X-121212-X-13-x-131210-X------------121212------121212-|
C--------------------------------------------121212------101010-------|

(00:25)
D-----------------------------------------------------------------------|
A-----------------------------------------------------------------------|
F--------------------------999-------------999----------9999-----101010-|
C-----------------------------------------------------------------------|
G-000-00-00-0000-000-00-00-777-000-00-0000-777--0000000-7777-000-8-8-8--|
C-000-00-00-0000-000-00-00-----000-00-0000------0000000------000--------|

(00:51)
D------------------------|
A------------------------|
F10-10-99-55-------------|
C-X-X--X--X--------------|
G-8-8--77-33-3-1-0-1-3-7-|
C------------------------|

(00:57)
"I must convey..."
Chorus:
Gtr I:
D------------------------|
A------------------------|
F------------------------|
C------------------------|
G-0000000-888888---------|
C-0000000-888888-8-7-5-7-|
Gtr II:
D------------------|
A------------------|
F------------------|
C------------------|
G-00000000-8888888-|
C-00000000-8888888-|

(1:09)
"Will you fly with me..."
Gtr I:
D---------------------------------------------|
A---------------------------------------------|
F---------------------------------------------|
C---------------------------------------------|
G-555-X-777-X-888-X-10-X-10-8-7----888----888-|
C-------------------------------888----555----|
Gtr II:
D---------------------------------------------------------------------|
A---------------------------------------------------------------------|
F---------------------------------------------------------------------|
C---------------------------------------------------------------------|
G-888-X-101010-X-121212-X-13-x-131210-X------------121212------121212-|
C--------------------------------------------121212------101010-------|

CHORUS

Bridge:
(2:01)
D------------------------------|
A------------------------------|
F------------------------------|
C------------------------------|
G-000-00-0-00-000-00-0-12-10-8-|
C-000-00-0-00-000-00-0---------|

(2:23)
D---------------------------------------|
A---------------------------------------|
F-10101010-1010-99999-55555-22222-------|
C---------------------------------------|
G-8-8-8-8--8-8--77777-33333-00000-------|
C---------------------------------------|

CHORUS from here on out.
then the bridge. and it's as simple as that.



Important: The song above is NOT stored on the Chordie server. The original song is hosted at www.guitaretab.com. Chordie works as a search engine and provides on-the-fly formatting. Chordie does not index songs against artists'/composers' will. To remove this song please click here.

This song is displayed as text-only. Transposing and tuning is only available for chordpro-songs.

Login - add to songbook

Rating click stars to rate

Layout
Accuracy

SHARE PAGE  




You need to log in to post comments