Guitar Tabs, Chords and Lyrics


Sixth Of June   It Dies Today



Title: Sixth of June
Artist: It Dies Today
Album: Sirens

im pretty sure this is right
only 1 part im unsure of. you be the judge.


E|------------------/9----9---------------------------------------------|
B|---------------------------12--------------------/12~-----12-10-------|
G|--pick slide-------------------11-9-----9h11p9------------------9-----|
D|-----////---------------------------------------------------------12--|
A|----////--------------------------------------------------------------|
E|---////---------------------------------------------------------------|


|-------------------------------------------|-9-----------------------------|
|-------------hold the 13 a little longer---|----------10-------------------|
|-------------------------11b13r11~---------|----11-9-----11-9--------------|
|---7--9--/11----11--9-9--------------------|------------------12--11--9--11|
|-------------------------------------------|-------------------------------|
|-------------------------------------------|-------------------------------|

|----------------------------------------------------------|
|-----------------------10~--------------------------------|
|------------9-------------------------11~----9-9-11-------|
|-12--11-12------11-12-----------11-12----------------9\7--|
|----------------------------------------------------------|
|----------------------------------------------------------|

|--------17-------17-------17-----------------------------|
|--18b19----18b19----18b19----18b19-------------18b19~~---|
|-------------------------------------20p19p17------------|
|---------------------------------------------------------|
|---------------------------------------------------------|
|---------------------------------------------------------|

well yea thats it. comment me on wat u think i did wrong. i'd appreciate that. im not 


Important: The song above is NOT stored on the Chordie server. The original song is hosted at www.guitaretab.com. Chordie works as a search engine and provides on-the-fly formatting. Chordie does not index songs against artists'/composers' will. To remove this song please click here.

This song is displayed as text-only. Transposing and tuning is only available for chordpro-songs.

Login - add to songbook

Rating click stars to rate

Layout
Accuracy

SHARE PAGE  




You need to log in to post comments