Guitar Tabs, Chords and Lyrics


Through Leaves Over Bridges   It Dies Today



drop C 
C G C F A D
p-pull off 
h-hammer on
*-harmonic
.-palm mute
~-let it ring 

i am 100% sure this is right

listin 2 the beat
D]------------------------------------------------]
A]------------------------------------------------]
F]------------------------------------------------]
C]------------------------------------------------]
G]-00000-000000-0000000-------0000000-0000000-----]
C]-00000-000000-0000000-0h3p1-0000000-0000000-----]
   ..... ...... .......       ....... ....... 
 
D]-------------------------------]
A]-------------------------------]
F]-------------------------------]
C]-------------------------------]repeat hole thing i dont no how many times
G]-----33333333-33333333---------]
C]-0h3-33333333-33333333-3p1p0---]
       ........ ........
D]---------------------------------------]
A]---------------------------------------]
F]---------------------------------------]
C]---------------------------------------] repeat 2 i think
G]------3---6---7-------7----------------]
C]-2222---2---3---5555----5555555--------]

D]-----------------------------------------]
A]-----------------------------------------]
F]-----------------------------------------]
C]-----------------------------------------]
G]-333333-3333333-3333333-00000000-0000000-]
C]-333333-3333333-3333333-00000000-0000000-]

chores  
D]---------------------------------]
A]-----*5~------------*5-*5-*7-*9--]
F]-------------*5~----*5-----------]
C]---------------------------------]
G]-2/3-----2/3-----2/3-------------]
C]-2/3-----2/3-----2/3-------------]

guitar whisper 
D]------------------------]
A]------------------------]
F]------------------------]
C]------------------------]
G]-00000000000000---------]
C]-00000000000000---------]

D]------------------------------------------------]
A]------------------------------------------------]
F]------------------------------------------------]
C]------------------------------------------------]
G]-00000-000000-0000000-------0000000-0000000-----]
C]-00000-000000-0000000-0h3p1-0000000-0000000-----]
   ..... ...... .......       ....... ....... 
 
D]-------------------------------]
A]-------------------------------]
F]-------------------------------]
C]-------------------------------]repeat hole thing i dont no how many times
G]-----33333333-33333333---------]
C]-0h3-33333333-33333333-3p1p0---]
       ........ ........

D]---------------------------------------]
A]---------------------------------------]
F]---------------------------------------]
C]---------------------------------------] repeat 3 here      
G]------3---6---7-------7----------------]
C]-2222---2---3---5555----5555555--------]

chores 
D]---------------------------------]
A]-----*5~------------*5-*5-*7-*9--]
F]-------------*5~----*5-----------]
C]---------------------------------] repeat 2
G]-2/3-----2/3-----2/3-------------]
C]-2/3-----2/3-----2/3-------------]

D]-----------]
A]-----------]
F]-----------]
C]-0~---3~---]repeat 4 times
G]-0~---3~---]
C]-0~---3~---]

D]---------------------------------------]
A]---------------------------------------]
F]---------------------------------------]
C]---------------------------------------] repeat 5 here      
G]------3---6---7-------7----------------]
C]-2222---2---3---5555----5555555--------]

breakdown at the end learn on own



Important: The song above is NOT stored on the Chordie server. The original song is hosted at www.guitaretab.com. Chordie works as a search engine and provides on-the-fly formatting. Chordie does not index songs against artists'/composers' will. To remove this song please click here.

This song is displayed as text-only. Transposing and tuning is only available for chordpro-songs.

Login - add to songbook

Rating click stars to rate

Layout
Accuracy

SHARE PAGE  




You need to log in to post comments