Guitar Tabs, Chords and Lyrics


Another Song The Djs Hate   Itchy Poopzkid



------------------------------------------------------------------------------
		Another Song the DJ's hate - Itchy Poopzkid
------------------------------------------------------------------------------
Tabbed by: christoph hadrys
Email: chryzhadryz@gmx.de

Tuning:half Step down

Main Riff:
d#|---------------------------------------------------------------------------|
A#|---------------------------------------------------------------------------|
F#|---------------------------------------------------------------------------|
C#|-----------------7---------------------------------------------------------|
G#|-----5--5--8--5-----5--7--5------------------------------------------------|
D#|---------------------------------------------------------------------------|

Chords:During the whole song

Part 1:
d#|---------------------------------------------------------------------------|
A#|---------------------------------------------------------------------------|
F#|---7--7--7--7--7--7--7--7--7--7--7--7--7--7--7--7--------------------------|
C#|---7--7--7--7--7--7--7--7--7--7--7--7--7--7--7--7--------------------------|
G#|---5--5--5--5--5--5--5--5--5--5--5--5--5--5--5--5--------------------------|
D#|---------------------------------------------------------------------------|

Part 2:
d#|---------------------------------------------------------------------------|
A#|---------------------------------------------------------------------------|
F#|---------------------------------------5--5--5--5--------------------------|
C#|---5--5--5--5--5--5--5--5--3--3--3--3--5--5--5--5--------------------------|
G#|---5--5--5--5--5--5--5--5--3--3--3--3--3--3--3--3--------------------------|
D#|---3--3--3--3--3--3--3--3--1--1--1--1--------------------------------------|

Refrain and Verse: part1 + part 2
Pre-Chorus,and Solo: only Part 2

Solo:
2 times:
d#|---------------------------------------------------------------------------|
A#|---------------------------------------------------------------------------|
F#|---------------10-10-----------------10-10-------------------10-10---------|
C#|---12-10-12-10-----------12-10-12-10----------10-12-10-12-10---------------|
G#|---------------------------------------------------------------------------|
D#|---------------------------------------------------------------------------|

d#|---------------------------------------------------------------------------|
A#|--12b13b12---12--10--------------------------------------------------------|
F#|---------------------12----------------------------------------------------|
C#|---------------------------------------------------------------------------|
G#|---------------------------------------------------------------------------|
D#|---------------------------------------------------------------------------|

| b  bend
| \  slide down
| h  hammer-on
| p  pull-off
| ~  vibrato
| +  harmonic
| x  Mute note

Order:
1xIntro:     pt1+pt2
1xMainRiff:  pt1+pt2 (other guitar plays main riff)
2xVerse:     pt1+pt2
1xPre-Chorus:pt2
2xRefrain:   pt1+pt2
1xMain Riff: pt1+pt2 (other guitar plays main riff)
2xVerse:     pt1+pt2
1xPre-Chorus:pt2
2xRefrain:   pt1+pt2
1xPre-Solo:  pt2
3xSolo:      pt2 (+Solo :) )
1xPre-Chorus:pt2
3xRefrain:   pt1+pt2
1xMain Riff: pt1+pt2 (other guitar plays main riff)


Important: The song above is NOT stored on the Chordie server. The original song is hosted at www.guitaretab.com. Chordie works as a search engine and provides on-the-fly formatting. Chordie does not index songs against artists/composers will. To remove this song please click here.

This song is displayed as text-only. Transposing and tuning is only available for chordpro-songs.

Login - add to songbook

Rating click stars to rate

Layout
Accuracy

SHARE PAGE  




You need to log in to post comments