And Ill Walk Away

Itchy Poopzkid

-----------------------------------------------------------------------------

-----------------------------------------------------------------------------

 G#5C#5
e-----------------------------------------------------------------------|
B-----------------------------------------------------------------------|
G-------------------------------------------6---------6-----6---------6-|
D------6-6--4------------6-6--4-----------------------------------------|4x
A-------------6-5-4-------------4-5-6---4-4---(4)-4-4---4-4---(4)-4-4---|
E--4-4---------------4-4------------------------------------------------|

Third Time: Distortion on!
Beim dritten Mal: Verzerrer an!

Verse
 G#5G#5C#m
e----------------------|  |-----------------------------------|
B----------------------|  |-----------------5~----------------|
G----------------------|  |-----------------6~----------------|
D------6-6--4----------|4x|-----6-6-6-6-6-6-6~----------------|
A-------------6-5-4----|  |-----6-6-6-6-6-6-4~----------------|
E--4-4-----------------|  |-----4-4-4-4-4-4-------------------|
P.M.-------------------|

2x (whole Verse/ganzer Vers)

Pre-Chorus

e-------|
B-------|
G-------|

D-x-x-x-|
A-x-x-x-|
E-x-x-x-|
P.M.----|

Chorus
 G#5C#5Bb5C#5
e----------------|
B----------------|
G-----6---3---6--|
D-6---6---3---6--|2x
A-6---4---1---4--|
E-4--------------|


(Intro Riff) 2x

Verse 2
 G#5G#5C#m
e----------------------|  |----------------------------------|
B----------------------|  |-----------------5-5-5~-----------|
G----------------------|  |-----------------6-6-6~-----------|
D------6-6--4----------|4x|-----6-6-6-6-6-6-6-6-6~-----------|
A-------------6-5-4----|  |-----6-6-6-6-6-6-4-4-4~-----------|
E--4-4-----------------|  |-----4-4-4-4-4-4------------------|
P.M.-------------------|


 G#5G#5C#m
e----------------------------------|  |--------------------------------|
B----------------------------------|  |-----------------5~-------------|
G----------------------------------|  |-----------------6~-------------|
D--6-6--/--6-6--/--6-6--/--6-6--/--|2x|-----6-6-6-6-6-6-6~-------------|
A--6-6--/--6-6--/--6-6--/--6-6--/--|  |-----6-6-6-6-6-6-4~-------------|
E--4-4--/--4-4--/--4-4--/--4-4--/--|  |-----4-4-4-4-4-4----------------|


(Chorus)

Bridge
Distortion off!/Verzerrer aus!
 G#D#G#
e----4-----------6----------4-------4~----|
B----4--4--------8--8-------4~~4----------|
G----5----5------8----8-----5-------------|
D----6-----------8----------6-------------|3x
A----6-----------6----------6-------------|
E----4----------------------4-------------|


Distortion on!/Verzerrer an!
(2. Guitar) C#5 G#5 C#5 C#m
e-----------|-------------------x-x-x-x-x|
B-----------|---------------5---x-x-x-x-x|
G-----------|---6-------6---6---x-x-x-x-x|
D-----------|---6---6---6---6---x-x-x-x-x|
A----/1/3/4/|---4---6---4---4---x-x-x-x-x|
E-2/4/------|-------4-----------x-x-x-x-x|
P.M.                            ---------|


(Chorus) 2x

(Intro Riff) 2x

Outro

e---------|
B---------|
G---------|

D-x-x-x-x-|
A-x-x-x-x-|
E-x-x-x-x-|
P.M.------|


| / slide up
| \ slide down
| h hammer-on
| p pull-off
| ~ vibrato
| + harmonic
| x Mute note

Lyrics:

I feel so extraordinarily right
My mind was black but now it turns to light

Hey Hey Hey
Come on baby better listen up
Say Say Say
Say what you want but I don’t give a fuck
Hey Hey Hey
I shut shut you up
And I walk away
Hey Hey Hey
Come on baby better listen up
Say Say Say
Say what you want but I don’t give a fuck
Hey Hey Hey
I shut shut you up
And I walk away
Up and away!!

I made it unquestionably clear
No more late night talks I have to fear

(Refrain)

My time is done I walk away
My time is done I walk away
My time is done I run…

Coz I am better off without you
I will walk away
Because I am better off without you
So much better off

(Refrain)
=============================================================================


Bb5 C#5 C#m D# G# G#5
variations - click chord images
Transpose chords:
Tuning:
Cool service:
View: Size:
A  A  A
Rating:
Layout:
  • Currently 3.4/5 Stars.
  • 1
  • 2
  • 3
  • 4
  • 5
 
Accuracy:
  • Currently 2.9/5 Stars.
  • 1
  • 2
  • 3
  • 4
  • 5
 
click stars to rate
Chordie recommends:
Learn to play songs at Jamplay.com with video guitar lessons
Songbook:
Login to add this song to your songbook
Support the artist
Preview/buy this song
MSN Music
Why this non-profit ad?

 
login to add comments/video/corrections