Chordie logo

stop Blues   Jack Johnson



e-----------------------------------------------------------------------|
B-----------------------------------------------------------------------|
G-------9-----9/-----------4----4---------2-----------------------------|
D-------9h11--9/-----------4h6--4-----2h4---2p0---------2---------------|
A---11----------------5/6-----------0-----------2--2h4-----2//----------|
E-0-----------------4---------------------------------------------------|

e-----------------------------------------------------------------------|
B-----------------------------------------------------------------------|
G-------9-----9/-----------4----4---------2-----------------------------|
D-------9h11--9/-----------4h6--4-----2h4---2p0---------2---------------|
A---11----------------5/6-----------0-----------2--2h4-----2------------|
E-0-----------------4---------------------------------------------------|

e--------------------------------------------------------------------|
B--------------------------------------------------------------------|
G-----4/6/4--------4-----------2------2------------------------------|
D-----4/6/4------4---4-----2h4------4---4----------------------------| X6
A-------------2----------0--------0----------------------------------|
E--0-----------------------------------------------------------------|

e---------------------------------------------------------------------------|
B---------------------------------------------------------------------------|
G--------------------------4------------------------------------------------|
D-----------------5\6--------------6\---------------------------------------|
A---0-----------------------------------------------------------------------|
E---------------------------------------------------------------------------|

e------------------------|--------------------|-----------------------------|
B------------------------|--------------------|-----------------------------|
G----------9------9\-----|---------4----4-----|----------2------------------|
D----------9h11---9\-----|-------- 4h6--4-----|----2h4-----2h0---------2----|
A-----11-----------------|-----5\6------------|-0---------------2--2h4---2\-|
E--0---------------------|-4------------------|-----------------------------|


e------------------------|---------------------|----------------------------|
B------------------------|---------------------|----------------------------|
G----------9-------9\----|----------4----4-----|---------2------------------|
D----------9h11----9\----|----------4h6--4-----|----2h4-----2h0---------2---|
A-----11-----------------|----5\6--------------|-0--------------2--2h4----2-|
E--0---------------------|-4-------------------|----------------------------|

e---------------------------------------------------------------------------|
B---------------------------------------------------------------------------|
G-----------2-------------------4-------------------------------------------|
D-----2h4-------2h0-------4\6--------6/-------------------------------------|
A--0------------------2-----------------------------------------------------|
E---------------------------------------------------------------------------|

e------------------------|--------------------|-----------------------------|
B------------------------|--------------------|-----------------------------|
G----------9------9\-----|---------4----4-----|----------2------------------|
D----------9h11---9\-----|-------- 4h6--4-----|----2h4-----2h0---------2----|
A-----11-----------------|-----5\6------------|-0---------------2--2h4---2\-|
E--0---------------------|-4------------------|-----------------------------|

e---------------------------------------------------------------------------|
B---------------------------------------------------------------------------|
G-------------2-----------------------9-------------------------------------|
D------2h4----------2h0--------/11--------/11-------------------------------|
A--0----------------------2-------------------------------------------------|
E---------------------------------------------------------------------------|


Sweet Solo
e----------------------|------------------|-------------------|-------------|
B--------------9-------|------------------|----------9--------|-------------|
G--------/11-----11----|--9--------9------|-----/11-----/11---|-9-----------|
D--6-------------------|------/11-----/11-|--6----------------|--------6----|
A----------------------|------------------|-------------------|----/9----9--|
E----------------------|------------------|-------------------|-------------|

e-----------------------------|---------------------------------------------|
B-----------------------------|---------------------------------------------|
G------4/6/4-----------4------|-----------2----------2----------------------|
D------4/6/4--------4-----4---|------2h4----------4-----2-------------------|
A--------------2--------------|--0-----------0------------------------------|
E--0--------------------------|---------------------------------------------|

Outro

e---------------------------------------------------------------------------|
B---------------------------------------------------------------------------|
G---------------------------------------------------------------------------|
D---------------------------------------------------------------------------|
A---7-----------------------------------------------------------------------|
E---------------------------------------------------------------------------|

e------------------------------------|--------------------------------------|
B------------------------------------|--------------------------------------|
G---------2-----------2------2-------|-----------4--------------------------|
D---------2h4---2-----2h4----2h4--2--|-----5\6-------6/---------------------|
A-----4------------------------------|-0------------------------------------|
E--2------------------------------------------------------------------------|



Important: The song above is NOT stored on the Chordie server. The original song is hosted at www.guitaretab.com. Chordie works as a search engine and provides on-the-fly formatting. Chordie does not index songs against artists/composers will. To remove this song please click here.

This song is displayed as text-only. Transposing and tuning is only available for chordpro-songs.

Login - add to songbook

Rating click stars to rate

Layout
Accuracy

SHARE PAGE  



You need to log in to post comments