Guitar Tabs, Chords and Lyrics


F Stop Blues   Jack Johnson








 F-Stop Blues-Jack Johnson

This is about 99.7456% right I think, it's the way that I play it and it sounds
excellent. There are one or two variations in his version, but play it like this
and it sounds exactly right.
Gtr I (E A D G B E)

 4/4
  Gtr I

Intro - play through twice

|--------------------------------------------------|
|-----0h2-0----------------------------------------|
|---1----------------------------------------------|
|---------------4h6-4-------7----------------------|
|-------------6---------7S9---9\-7-------7---------|
|-0---------4---------5------------7-7S9---9S12----|


Play during the verse

|-----------------------------------------------|
|---2h4p2---------------------------------------|
|-----------------------------------------------|
|-------------------------7---------------------|
|-------------4h6-4---7S9---9S7-------7---------|
|-0-------4-6-------5-----------7-7S9---9S12----|


Play this during the chorus

|-----------------|------------------|-----------------|
|-----0h2-0-------|------------------|-----------------|
|---1-------------|------------------|-----------------|
|---------------4h|=6-4-------7------|-----------------|
|-------------6---|-------7S9---9\-7-|-------7---------|
|-0---------4-----|-----5------------|-7-7S9---9S12----|


|-----------------|------------------|------------------|
|-----0h2-0-------|------------------|------------------|
|---1-------------|------------------|------------------|
|---------------4h|=6-4-------7------|--------9---------|
|-------------6---|-------7S9---9\-7-|---9S12---9S12----|
|-0---------4-----|-----5------------|-7----------------|


|-----------------|------------------|-----------------|
|-----0h2-0-------|------------------|-----------------|
|---1-------------|------------------|-----------------|
|---------------4h|=6-4-------7------|-----------------|
|-------------6---|-------7S9---9\-7-|-------7---------|
|-0---------4-----|-----5------------|-7-7S9---9S12----|


                                                       ~~
|-----------------|------------------|----------------------|
|-----0h2-0-------|------------------|----------------------|
|---1-------------|------------------|--------9-------------|
|---------------4h|=6-4-------7------|---9S12---12\-9-------|
|-------------6---|-------7S9---9\-7-|----------------11----|
|-0---------4-----|-----5------------|-7--------------------|


        

Solo- trying sliding around some to get an even neater sound

        ~        ~       ~        ~
|-----------0--------------------------|
|-7-9-7---2---2----7-9-7---------------|
|-------9----------------9-------------|
|----------------6---------------------|
|--------------------------9-11-9-7----|
|--------------------------------------|


Play after solo, before you go back to the chorus

                        ~     ~
|-----------------|---------------------|
|-----------------|---------------------|
|-----2h4-2h4-2h4-|-2h4-----------------|
|-----2h4-2h4-2h4-|-2h4-------9---------|
|---4-------------|-------7S9---9S12----|
|-2---------------|-----5---------------|



The outro is the same as the chorus.



***************************************************************************************
* Generated using Power Tab Editor by Brad Larsen - http://powertab.guitarnetwork.org *


Important: The song above is NOT stored on the Chordie server. The original song is hosted at www.guitaretab.com. Chordie works as a search engine and provides on-the-fly formatting. Chordie does not index songs against artists'/composers' will. To remove this song please click here.

This song is displayed as text-only. Transposing and tuning is only available for chordpro-songs.

Login - add to songbook

Rating click stars to rate

Layout
Accuracy

SHARE PAGE  




You need to log in to post comments