Learning Lines

Jack Penate

-=-=-=-=-=-=-=-=-=-=-=-=-=-=-=-=-=-=-

-=-=-=-=-=-=-=-=-=-=-=-=-=-=-=-=-=-=-
--------------------
--------------------
--------------------

 Emaj7D#m7Dmaj7C#m7
    When things have been said, so many times
 Emaj7D#m7Dmaj7C#m7
    You repeat back as if your learning lines
 Emaj7D#m7Dmaj7C#m7
    It's so easier to fall into this trap
 Emaj7D#m7Dmaj7C#m7
    Cos once you get there, you can't get back

Riff A: (no lyrics)
e|------------------------------------------|
B|------9---------7--------7---------5------|
G|--------8---------6--------6---------4----|
D|--------------------------------------6---|
A|--7-7-------6-6-------5-5------4-4--------|
E|------------------------------------------|
e|----------------------------4---4-4-4-----|
B|------9---------7-----7--7--5---5-5-5-----|
G|--------8---------6---6--6--4---4-4-4-----|
D|----------------------7--7--6---6-6-6-----|
A|--7-7-------6-6-------5--5--4---4-4-4-----|
E|------------------------------------------|


Riff B:
e|------7-7-7------6-6-6------5-5-5------4-4-4--|
B|------9-9-9------7-7-7------7-7-7------5-5-5--|
G|------8-8-8------6-6-6------6-6-6------4-4-4--|
D|------9-9-9------8-8-8------7-7-7------6-6-6--|
A|--7-7--------6-6--------5-5--------4-4--------|
E|----------------------------------------------|

'As I get older I wonder what I'll do'

e|------7-7-7------6-6-6-----5--4--4-4-4-4-4-4--|
B|------9-9-9------7-7-7-----7--5--5-5-5-5-5-5--|
G|------8-8-8------6-6-6--6--6--4--4-4-4-4-4-4--|
D|------9-9-9------8-8-8--7--7--6--6-6-6-6-6-6--|
A|--7-7--------6-6--------5-----4--4-4-4-4-4-4--|
E|----------------------------------------------|

'When I make my own choices and they say its up to you'

e|------7-7-7------6-6-6------5-5-5------4-4-4--|
B|------9-9-9------7-7-7------7-7-7------5-5-5--|
G|------8-8-8------6-6-6------6-6-6------4-4-4--|
D|------9-9-9------8-8-8------7-7-7------6-6-6--|
A|--7-7--------6-6--------5-5--------4-4--------|
E|----------------------------------------------|

'Cos right now I'm feeling safe its all the same'

e|------7-7-7------6-6-6-----5--4--4-4-4-4-4-4--|
B|------9-9-9------7-7-7-----7--5--5-5-5-5-5-5--|
G|------8-8-8------6-6-6--6--6--4--4-4-4-4-4-4--|
D|------9-9-9------8-8-8--7--7--6--6-6-6-6-6-6--|
A|--7-7--------6-6--------5-----4--4-4-4-4-4-4--|
E|----------------------------------------------|

'But in a few years if I'm nowhere its me to blame'

PreChorus:
 C#m7D#m7Emaj7G#m7
 ohhhhhhh, ohhhhhhhhh, ohhhhhhhh, ohhh
 C#m7D#m7Emaj7G#m7
 ohhhhhhh, ohhhhhhhhh, ohhhhhhhh, ohhh
 C#m7D#m7Emaj7G#m7
 ohhhhhhh, ohhhhhhhhh, ohhhhhhhh, ohhh
 Emaj7
 oooohhh...

(chorus)Riff C:
e|------------------------------------|
B|------5-5------7-7-----9-------7----|
G|------4-4------6-6------8-------6---|
D|------6-6------8-8-------9-------8--|
A|--4-4-4-4--6-6-6-6--7-7-----6-6-----|
E|------------------------------------| x3

'Picture frame, books and shelves, not afraid by myself'
'Metal strings, glowing tubes, Bessie Smith, sings the blues'
'Key and lock, dirty clothes, misunderstood poets prose'

e|--------------------------------------------------------|
B|------5-5------7-7-----9-9-9----------------------------|
G|------4-4------6-6-----8-8-8-------x-x--x-x--x-x--x-x---|
D|------6-6------8-8-----9-9-9---8------------------------|
A|--4-4-4-4--6-6-6-6--7-7------6-6------------------------|
E|--------------------------------------------------------|

'Dreaming with open minds, repeating back, learning lines...
learning lines... learning lines... learning lines...'

Riff A x1
Riff Bx1
Prechorus x1
Riff Cx1 & FINISH

Verse 2 lyrics:
People around seem to have their heads screwed on
But dreaming's become my life I'm finding it hard to move on
It'd be so easy if I wanted to charter survey
Knowing my future down to a year or a day

------------------------

Enjoy! Comments Welcome
------------------------				



C#m7 D#m7 Dmaj7 Emaj7 G#m7
variations - click chord images
Transpose chords:
Tuning:
Cool service:
View: Size:
A  A  A
Rating:
Layout:
  • Currently 2.9/5 Stars.
  • 1
  • 2
  • 3
  • 4
  • 5
 
Accuracy:
  • Currently 2.8/5 Stars.
  • 1
  • 2
  • 3
  • 4
  • 5
 
click stars to rate
Chordie recommends:
Learn to play guitar with video-based, online guitar lessons at JamPlay.com
Songbook:
Login to add this song to your songbook
Support the artist
Preview/buy this song
MSN Music
Why this non-profit ad?

 
login to add comments/video/corrections